  0
SECTION
  2
HEADER
  9
$ACADVER
  1
AC1009
  9
$INSBASE
 10
-38.489983305026747
 20
-12.71807151456593
 30
0.0
  9
$EXTMIN
 10
-38.489983305026747
 20
-12.71807151456593
 30
0.0
  9
$EXTMAX
 10
-26.732477909308681
 20
-3.9665338768659639
 30
0.0
  9
$LIMMIN
 10
0.0
 20
0.0
  9
$LIMMAX
 10
12.0
 20
9.0
  9
$ORTHOMODE
 70
     1
  9
$REGENMODE
 70
     1
  9
$FILLMODE
 70
     1
  9
$QTEXTMODE
 70
     0
  9
$MIRRTEXT
 70
     1
  9
$DRAGMODE
 70
     2
  9
$LTSCALE
 40
1.0
  9
$OSMODE
 70
    39
  9
$ATTMODE
 70
     1
  9
$TEXTSIZE
 40
0.5
  9
$TRACEWID
 40
0.05
  9
$TEXTSTYLE
  7
STANDARD
  9
$CLAYER
  8
0
  9
$CELTYPE
  6
BYLAYER
  9
$CECOLOR
 62
   256
  9
$DIMSCALE
 40
1.0
  9
$DIMASZ
 40
0.18
  9
$DIMEXO
 40
0.0625
  9
$DIMDLI
 40
0.38
  9
$DIMRND
 40
0.0
  9
$DIMDLE
 40
0.0
  9
$DIMEXE
 40
0.18
  9
$DIMTP
 40
0.0
  9
$DIMTM
 40
0.0
  9
$DIMTXT
 40
0.18
  9
$DIMCEN
 40
0.09
  9
$DIMTSZ
 40
0.0
  9
$DIMTOL
 70
     0
  9
$DIMLIM
 70
     0
  9
$DIMTIH
 70
     1
  9
$DIMTOH
 70
     1
  9
$DIMSE1
 70
     0
  9
$DIMSE2
 70
     0
  9
$DIMTAD
 70
     0
  9
$DIMZIN
 70
     0
  9
$DIMBLK
  1

  9
$DIMASO
 70
     1
  9
$DIMSHO
 70
     1
  9
$DIMPOST
  1

  9
$DIMAPOST
  1

  9
$DIMALT
 70
     0
  9
$DIMALTD
 70
     2
  9
$DIMALTF
 40
25.399999999999999
  9
$DIMLFAC
 40
1.0
  9
$DIMTOFL
 70
     0
  9
$DIMTVP
 40
0.0
  9
$DIMTIX
 70
     0
  9
$DIMSOXD
 70
     0
  9
$DIMSAH
 70
     0
  9
$DIMBLK1
  1

  9
$DIMBLK2
  1

  9
$DIMSTYLE
  2
STANDARD
  9
$DIMCLRD
 70
     0
  9
$DIMCLRE
 70
     0
  9
$DIMCLRT
 70
     0
  9
$DIMTFAC
 40
1.0
  9
$DIMGAP
 40
0.09
  9
$LUNITS
 70
     2
  9
$LUPREC
 70
     4
  9
$SKETCHINC
 40
0.1
  9
$FILLETRAD
 40
0.5
  9
$AUNITS
 70
     0
  9
$AUPREC
 70
     0
  9
$MENU
  1
.
  9
$ELEVATION
 40
0.0
  9
$PELEVATION
 40
0.0
  9
$THICKNESS
 40
0.0
  9
$LIMCHECK
 70
     0
  9
$BLIPMODE
 70
     0
  9
$CHAMFERA
 40
0.0
  9
$CHAMFERB
 40
0.0
  9
$SKPOLY
 70
     0
  9
$TDCREATE
 40
2452824.6434584488
  9
$TDUPDATE
 40
2452990.5768084489
  9
$TDINDWG
 40
1.6606521991000001
  9
$TDUSRTIMER
 40
1.6606521991000001
  9
$USRTIMER
 70
     1
  9
$ANGBASE
 50
0.0
  9
$ANGDIR
 70
     0
  9
$PDMODE
 70
     0
  9
$PDSIZE
 40
0.0
  9
$PLINEWID
 40
0.0
  9
$COORDS
 70
     1
  9
$SPLFRAME
 70
     0
  9
$SPLINETYPE
 70
     6
  9
$SPLINESEGS
 70
     8
  9
$ATTDIA
 70
     0
  9
$ATTREQ
 70
     1
  9
$HANDLING
 70
 22529
  9
$HANDSEED
  5
8A
  9
$SURFTAB1
 70
     6
  9
$SURFTAB2
 70
     6
  9
$SURFTYPE
 70
     6
  9
$SURFU
 70
     6
  9
$SURFV
 70
     6
  9
$UCSNAME
  2

  9
$UCSORG
 10
0.0
 20
0.0
 30
0.0
  9
$UCSXDIR
 10
1.0
 20
0.0
 30
0.0
  9
$UCSYDIR
 10
0.0
 20
1.0
 30
0.0
  9
$PUCSNAME
  2

  9
$PUCSORG
 10
0.0
 20
0.0
 30
0.0
  9
$PUCSXDIR
 10
1.0
 20
0.0
 30
0.0
  9
$PUCSYDIR
 10
0.0
 20
1.0
 30
0.0
  9
$USERI1
 70
     0
  9
$USERI2
 70
     0
  9
$USERI3
 70
     0
  9
$USERI4
 70
     0
  9
$USERI5
 70
     0
  9
$USERR1
 40
0.0
  9
$USERR2
 40
0.0
  9
$USERR3
 40
0.0
  9
$USERR4
 40
0.0
  9
$USERR5
 40
0.0
  9
$WORLDVIEW
 70
     1
  9
$SHADEDGE
 70
     3
  9
$SHADEDIF
 70
    70
  9
$TILEMODE
 70
     1
  9
$MAXACTVP
 70
    48
  9
$PLIMCHECK
 70
     0
  9
$PEXTMIN
 10
1.0000000000000000E+020
 20
1.0000000000000000E+020
 30
1.0000000000000000E+020
  9
$PEXTMAX
 10
-1.0000000000000000E+020
 20
-1.0000000000000000E+020
 30
-1.0000000000000000E+020
  9
$PLIMMIN
 10
0.0
 20
0.0
  9
$PLIMMAX
 10
12.0
 20
9.0
  9
$UNITMODE
 70
     0
  9
$VISRETAIN
 70
     1
  9
$PLINEGEN
 70
     0
  9
$PSLTSCALE
 70
     1
  0
ENDSEC
  0
SECTION
  2
TABLES
  0
TABLE
  2
VPORT
 70
     2
  0
VPORT
  2
*ACTIVE
 70
     0
 10
0.0
 20
0.0
 11
1.0
 21
1.0
 12
-32.50904409105064
 22
-8.1882174235891512
 13
0.0
 23
0.0
 14
0.5
 24
0.5
 15
0.5
 25
0.5
 16
0.0
 26
0.0
 36
1.0
 17
0.0
 27
0.0
 37
0.0
 40
10.906521793503851
 41
1.742718446601941
 42
50.0
 43
0.0
 44
0.0
 50
0.0
 51
0.0
 71
     0
 72
   100
 73
     1
 74
     1
 75
     0
 76
     0
 77
     0
 78
     0
  0
ENDTAB
  0
TABLE
  2
LTYPE
 70
     1
  0
LTYPE
  2
CONTINUOUS
 70
     0
  3
Solid line
 72
    65
 73
     0
 40
0.0
  0
ENDTAB
  0
TABLE
  2
LAYER
 70
     1
  0
LAYER
  2
0
 70
     0
 62
     7
  6
CONTINUOUS
  0
ENDTAB
  0
TABLE
  2
STYLE
 70
     1
  0
STYLE
  2
STANDARD
 70
     0
 40
0.0
 41
1.0
 50
0.0
 71
     0
 42
0.5
  3
txt
  4

  0
ENDTAB
  0
TABLE
  2
VIEW
 70
     0
  0
ENDTAB
  0
TABLE
  2
UCS
 70
     0
  0
ENDTAB
  0
TABLE
  2
APPID
 70
     1
  0
APPID
  2
ACAD
 70
     0
  0
ENDTAB
  0
TABLE
  2
DIMSTYLE
 70
     1
  0
DIMSTYLE
  2
STANDARD
 70
     0
  3

  4

  5

  6

  7

 40
1.0
 41
0.18
 42
0.0625
 43
0.38
 44
0.18
 45
0.0
 46
0.0
 47
0.0
 48
0.0
140
0.18
141
0.09
142
0.0
143
25.399999999999999
144
1.0
145
0.0
146
1.0
147
0.09
 71
     0
 72
     0
 73
     1
 74
     1
 75
     0
 76
     0
 77
     0
 78
     0
170
     0
171
     2
172
     0
173
     0
174
     0
175
     0
176
     0
177
     0
178
     0
  0
ENDTAB
  0
ENDSEC
  0
SECTION
  2
BLOCKS
  0
BLOCK
  8
0
  2
$MODEL_SPACE
 70
     0
 10
0.0
 20
0.0
 30
0.0
  3
$MODEL_SPACE
  1

  0
ENDBLK
  5
9
  8
0
  0
BLOCK
 67
     1
  8
0
  2
$PAPER_SPACE
 70
     0
 10
0.0
 20
0.0
 30
0.0
  3
$PAPER_SPACE
  1

  0
ENDBLK
  5
E
 67
     1
  8
0
  0
BLOCK
  8
0
  2
*U0
 70
     1
 10
0.0
 20
0.0
 30
0.0
  3
*U0
  1

  0
TEXT
  5
83
  8
0
 10
-32.810640073932348
 20
-10.33061954089322
 30
0.0
 40
0.25
  1
Drill Template for 
  0
TEXT
  5
84
  8
0
 10
-32.810640073932348
 20
-10.747286207559879
 30
0.0
 40
0.25
  1
top and bottom
  0
TEXT
  5
85
  8
0
 10
-32.810640073932348
 20
-11.163952874226551
 30
0.0
 40
0.25
  1
edges of side 
  0
TEXT
  5
86
  8
0
 10
-32.810640073932348
 20
-11.58061954089322
 30
0.0
 40
0.25
  1
panels (left, right,
  0
TEXT
  5
87
  8
0
 10
-32.810640073932348
 20
-11.99728620755989
 30
0.0
 40
0.25
  1
front, back)
  0
ENDBLK
  5
89
  8
0
  0
ENDSEC
  0
SECTION
  2
ENTITIES
  0
POLYLINE
  5
24
  8
0
 66
     1
 10
0.0
 20
0.0
 30
0.0
 70
     1
  0
VERTEX
  5
78
  8
0
 10
-27.026557244769091
 20
-3.9665338768659639
 30
0.0
  0
VERTEX
  5
79
  8
0
 10
-26.732477909308681
 20
-4.3709066559389012
 30
0.0
  0
VERTEX
  5
7A
  8
0
 10
-38.054915723350867
 20
-12.60512804883011
 30
0.0
  0
VERTEX
  5
7B
  8
0
 10
-38.348995058811269
 20
-12.200755269757179
 30
0.0
  0
SEQEND
  5
7C
  8
0
  0
POLYLINE
  5
25
  8
0
 66
     1
 10
0.0
 20
0.0
 30
0.0
 70
     1
  0
VERTEX
  5
7D
  8
0
 10
-38.489983305026747
 20
-12.71807151456593
 30
0.0
  0
VERTEX
  5
7E
  8
0
 10
-27.989983305026751
 20
-12.71807151456593
 30
0.0
  0
VERTEX
  5
7F
  8
0
 10
-27.989983305026751
 20
-4.718071514565934
 30
0.0
  0
VERTEX
  5
80
  8
0
 10
-38.489983305026747
 20
-4.718071514565934
 30
0.0
  0
SEQEND
  5
81
  8
0
  0
LINE
  5
26
  8
0
 10
-36.459700747159999
 20
-11.398179977136291
 30
0.0
 11
-36.70922780241866
 21
-11.055068657767791
 31
0.0
  0
LINE
  5
27
  8
0
 10
-36.756019934473578
 20
-11.351387845081369
 30
0.0
 11
-36.412908615105081
 21
-11.101860789822711
 31
0.0
  0
CIRCLE
  5
28
  8
0
 10
-36.584464274789333
 20
-11.226624317452041
 30
0.0
 40
0.125
  0
LINE
  5
29
  8
0
 10
-34.437836851795318
 20
-9.9277832998342852
 30
0.0
 11
-34.687363907053978
 21
-9.5846719804657887
 31
0.0
  0
LINE
  5
2A
  8
0
 10
-34.734156039108903
 20
-9.8809911677793671
 30
0.0
 11
-34.3910447197404
 21
-9.6314641125207103
 31
0.0
  0
CIRCLE
  5
2B
  8
0
 10
-34.562600379424651
 20
-9.7562276401500387
 30
0.0
 40
0.125
  0
INSERT
  5
2C
  8
0
  2
*U0
 10
0.0
 20
0.0
 30
0.0
  0
LINE
  5
2D
  8
0
 10
-32.41597295643065
 20
-8.4573866225322831
 30
0.0
 11
-32.665500011689304
 21
-8.1142753031637866
 31
0.0
  0
LINE
  5
2E
  8
0
 10
-32.712292143744222
 20
-8.4105944904773615
 30
0.0
 11
-32.369180824375732
 21
-8.1610674352187047
 31
0.0
  0
CIRCLE
  5
2F
  8
0
 10
-32.54073648405997
 20
-8.2858309628480331
 30
0.0
 40
0.125
  0
LINE
  5
30
  8
0
 10
-30.69042824837954
 20
-6.9401978131753594
 30
0.0
 11
-30.34731692901105
 21
-6.6906707579167017
 31
0.0
  0
LINE
  5
31
  8
0
 10
-30.394109061065969
 20
-6.9869899452302766
 30
0.0
 11
-30.643636116324629
 21
-6.643878625861781
 31
0.0
  0
CIRCLE
  5
32
  8
0
 10
-30.518872588695299
 20
-6.815434285546031
 30
0.0
 40
0.125
  0
LINE
  5
33
  8
0
 10
-28.668564353014869
 20
-5.4698011358733547
 30
0.0
 11
-28.325453033646369
 21
-5.2202740806146979
 31
0.0
  0
LINE
  5
34
  8
0
 10
-28.37224516570129
 20
-5.5165932679282728
 30
0.0
 11
-28.621772220959951
 21
-5.1734819485597772
 31
0.0
  0
CIRCLE
  5
35
  8
0
 10
-28.497008693330621
 20
-5.3450376082440254
 30
0.0
 40
0.125
  0
ENDSEC
  0
EOF
