  0
SECTION
  2
HEADER
  9
$ACADVER
  1
AC1009
  9
$INSBASE
 10
-81.713278
 20
5.726707
 30
0.0
  9
$EXTMIN
 10
0.0
 20
0.0
 30
0.0
  9
$EXTMAX
 10
17.944944
 20
15.625
 30
0.0
  9
$LIMMIN
 10
0.0
 20
0.0
  9
$LIMMAX
 10
12.0
 20
9.0
  9
$ORTHOMODE
 70
     1
  9
$REGENMODE
 70
     1
  9
$FILLMODE
 70
     1
  9
$QTEXTMODE
 70
     0
  9
$MIRRTEXT
 70
     1
  9
$DRAGMODE
 70
     2
  9
$LTSCALE
 40
1.0
  9
$OSMODE
 70
    39
  9
$ATTMODE
 70
     1
  9
$TEXTSIZE
 40
0.5
  9
$TRACEWID
 40
0.05
  9
$TEXTSTYLE
  7
STANDARD
  9
$CLAYER
  8
0
  9
$CELTYPE
  6
BYLAYER
  9
$CECOLOR
 62
   256
  9
$DIMSCALE
 40
1.0
  9
$DIMASZ
 40
0.18
  9
$DIMEXO
 40
0.0625
  9
$DIMDLI
 40
0.38
  9
$DIMRND
 40
0.0
  9
$DIMDLE
 40
0.0
  9
$DIMEXE
 40
0.18
  9
$DIMTP
 40
0.0
  9
$DIMTM
 40
0.0
  9
$DIMTXT
 40
0.18
  9
$DIMCEN
 40
0.09
  9
$DIMTSZ
 40
0.0
  9
$DIMTOL
 70
     0
  9
$DIMLIM
 70
     0
  9
$DIMTIH
 70
     1
  9
$DIMTOH
 70
     1
  9
$DIMSE1
 70
     0
  9
$DIMSE2
 70
     0
  9
$DIMTAD
 70
     0
  9
$DIMZIN
 70
     0
  9
$DIMBLK
  1

  9
$DIMASO
 70
     1
  9
$DIMSHO
 70
     1
  9
$DIMPOST
  1

  9
$DIMAPOST
  1

  9
$DIMALT
 70
     0
  9
$DIMALTD
 70
     2
  9
$DIMALTF
 40
25.4
  9
$DIMLFAC
 40
1.0
  9
$DIMTOFL
 70
     0
  9
$DIMTVP
 40
0.0
  9
$DIMTIX
 70
     0
  9
$DIMSOXD
 70
     0
  9
$DIMSAH
 70
     0
  9
$DIMBLK1
  1

  9
$DIMBLK2
  1

  9
$DIMSTYLE
  2
STANDARD
  9
$DIMCLRD
 70
     0
  9
$DIMCLRE
 70
     0
  9
$DIMCLRT
 70
     0
  9
$DIMTFAC
 40
1.0
  9
$DIMGAP
 40
0.09
  9
$LUNITS
 70
     2
  9
$LUPREC
 70
     4
  9
$SKETCHINC
 40
0.1
  9
$FILLETRAD
 40
0.5
  9
$AUNITS
 70
     0
  9
$AUPREC
 70
     0
  9
$MENU
  1
.
  9
$ELEVATION
 40
0.0
  9
$PELEVATION
 40
0.0
  9
$THICKNESS
 40
0.0
  9
$LIMCHECK
 70
     0
  9
$BLIPMODE
 70
     0
  9
$CHAMFERA
 40
0.0
  9
$CHAMFERB
 40
0.0
  9
$SKPOLY
 70
     0
  9
$TDCREATE
 40
2452980.846034
  9
$TDUPDATE
 40
2452980.846034
  9
$TDINDWG
 40
0.0
  9
$TDUSRTIMER
 40
0.0
  9
$USRTIMER
 70
     1
  9
$ANGBASE
 50
0.0
  9
$ANGDIR
 70
     0
  9
$PDMODE
 70
     0
  9
$PDSIZE
 40
0.0
  9
$PLINEWID
 40
0.0
  9
$COORDS
 70
     1
  9
$SPLFRAME
 70
     0
  9
$SPLINETYPE
 70
     6
  9
$SPLINESEGS
 70
     8
  9
$ATTDIA
 70
     0
  9
$ATTREQ
 70
     1
  9
$HANDLING
 70
     1
  9
$HANDSEED
  5
92C
  9
$SURFTAB1
 70
     6
  9
$SURFTAB2
 70
     6
  9
$SURFTYPE
 70
     6
  9
$SURFU
 70
     6
  9
$SURFV
 70
     6
  9
$UCSNAME
  2

  9
$UCSORG
 10
0.0
 20
0.0
 30
0.0
  9
$UCSXDIR
 10
1.0
 20
0.0
 30
0.0
  9
$UCSYDIR
 10
0.0
 20
1.0
 30
0.0
  9
$PUCSNAME
  2

  9
$PUCSORG
 10
0.0
 20
0.0
 30
0.0
  9
$PUCSXDIR
 10
1.0
 20
0.0
 30
0.0
  9
$PUCSYDIR
 10
0.0
 20
1.0
 30
0.0
  9
$USERI1
 70
     0
  9
$USERI2
 70
     0
  9
$USERI3
 70
     0
  9
$USERI4
 70
     0
  9
$USERI5
 70
     0
  9
$USERR1
 40
0.0
  9
$USERR2
 40
0.0
  9
$USERR3
 40
0.0
  9
$USERR4
 40
0.0
  9
$USERR5
 40
0.0
  9
$WORLDVIEW
 70
     1
  9
$SHADEDGE
 70
     3
  9
$SHADEDIF
 70
    70
  9
$TILEMODE
 70
     1
  9
$MAXACTVP
 70
    48
  9
$PLIMCHECK
 70
     0
  9
$PEXTMIN
 10
1.000000E+020
 20
1.000000E+020
 30
1.000000E+020
  9
$PEXTMAX
 10
-1.000000E+020
 20
-1.000000E+020
 30
-1.000000E+020
  9
$PLIMMIN
 10
0.0
 20
0.0
  9
$PLIMMAX
 10
12.0
 20
9.0
  9
$UNITMODE
 70
     0
  9
$VISRETAIN
 70
     1
  9
$PLINEGEN
 70
     0
  9
$PSLTSCALE
 70
     1
  0
ENDSEC
  0
SECTION
  2
TABLES
  0
TABLE
  2
VPORT
 70
     2
  0
VPORT
  2
*ACTIVE
 70
     0
 10
0.0
 20
0.0
 11
1.0
 21
1.0
 12
8.968977
 22
7.89078
 13
0.0
 23
0.0
 14
0.5
 24
0.5
 15
0.5
 25
0.5
 16
0.0
 26
0.0
 36
1.0
 17
0.0
 27
0.0
 37
0.0
 40
17.89467
 41
1.57375
 42
50.0
 43
0.0
 44
0.0
 50
0.0
 51
0.0
 71
     0
 72
   100
 73
     1
 74
     1
 75
     0
 76
     0
 77
     0
 78
     0
  0
ENDTAB
  0
TABLE
  2
LTYPE
 70
     1
  0
LTYPE
  2
CONTINUOUS
 70
     0
  3
Solid line
 72
    65
 73
     0
 40
0.0
  0
ENDTAB
  0
TABLE
  2
LAYER
 70
     1
  0
LAYER
  2
0
 70
     0
 62
     7
  6
CONTINUOUS
  0
ENDTAB
  0
TABLE
  2
STYLE
 70
     1
  0
STYLE
  2
STANDARD
 70
     0
 40
0.0
 41
1.0
 50
0.0
 71
     0
 42
0.5
  3
txt
  4

  0
ENDTAB
  0
TABLE
  2
VIEW
 70
     0
  0
ENDTAB
  0
TABLE
  2
UCS
 70
     0
  0
ENDTAB
  0
TABLE
  2
APPID
 70
     1
  0
APPID
  2
ACAD
 70
     0
  0
ENDTAB
  0
TABLE
  2
DIMSTYLE
 70
     1
  0
DIMSTYLE
  2
STANDARD
 70
     0
  3

  4

  5

  6

  7

 40
1.0
 41
0.18
 42
0.0625
 43
0.38
 44
0.18
 45
0.0
 46
0.0
 47
0.0
 48
0.0
140
0.18
141
0.09
142
0.0
143
25.4
144
1.0
145
0.0
146
1.0
147
0.09
 71
     0
 72
     0
 73
     1
 74
     1
 75
     0
 76
     0
 77
     0
 78
     0
170
     0
171
     2
172
     0
173
     0
174
     0
175
     0
176
     0
177
     0
178
     0
  0
ENDTAB
  0
ENDSEC
  0
SECTION
  2
BLOCKS
  0
BLOCK
  8
0
  2
$MODEL_SPACE
 70
     0
 10
0.0
 20
0.0
 30
0.0
  3
$MODEL_SPACE
  1

  0
ENDBLK
  5
76B
  8
0
  0
BLOCK
 67
     1
  8
0
  2
$PAPER_SPACE
 70
     0
 10
0.0
 20
0.0
 30
0.0
  3
$PAPER_SPACE
  1

  0
ENDBLK
  5
769
 67
     1
  8
0
  0
BLOCK
  8
0
  2
_OPEN30
 70
     0
 10
0.0
 20
0.0
 30
0.0
  3
_OPEN30
  1

  0
LINE
  5
23
  8
0
  6
BYBLOCK
 62
     0
 10
-1.0
 20
0.267949
 30
0.0
 11
0.0
 21
0.0
 31
0.0
1001
ACAD
1000
RTLwPs
1070
   158
  0
LINE
  5
24
  8
0
  6
BYBLOCK
 62
     0
 10
0.0
 20
0.0
 30
0.0
 11
-1.0
 21
-0.267949
 31
0.0
1001
ACAD
1000
RTLwPs
1070
   158
  0
LINE
  5
25
  8
0
  6
BYBLOCK
 62
     0
 10
0.0
 20
0.0
 30
0.0
 11
-1.0
 21
0.0
 31
0.0
1001
ACAD
1000
RTLwPs
1070
   158
  0
ENDBLK
  5
27
  8
0
  0
ENDSEC
  0
SECTION
  2
ENTITIES
  0
INSERT
  5
2A
  8
0
  2
_OPEN30
 10
12.009339
 20
9.324776
 30
0.0
 41
0.18
 42
0.18
 43
0.18
 50
311.974237
1001
ACAD
1000
DSTYLE
1002
{
1070
     5
1000
OPEN30
1070
    77
1070
     0
1070
   147
1040
0.09
1070
   341
1005
183B700400000022
1002
}
  0
POLYLINE
  5
579
  8
0
 66
     1
 10
0.0
 20
0.0
 30
0.0
 70
   128
1001
ACAD
1000
R13OBJECT
1002
{
1005
2A
1002
}
  0
VERTEX
  5
90B
  8
0
 10
11.888955
 20
9.458596
 30
0.0
  0
VERTEX
  5
90C
  8
0
 10
11.729597
 20
9.635742
 30
0.0
  0
VERTEX
  5
90D
  8
0
 10
11.729597
 20
9.775677
 30
0.0
  0
SEQEND
  5
90E
  8
0
  0
POLYLINE
  5
2B
  8
0
 66
     1
 10
0.0
 20
0.0
 30
0.0
 70
     1
  0
VERTEX
  5
770
  8
0
 10
1.972472
 20
0.8125
 30
0.0
  0
VERTEX
  5
771
  8
0
 10
1.972472
 20
0.3125
 30
0.0
  0
VERTEX
  5
772
  8
0
 10
15.972472
 20
0.3125
 30
0.0
  0
VERTEX
  5
773
  8
0
 10
15.972472
 20
0.8125
 30
0.0
  0
SEQEND
  5
774
  8
0
  0
POLYLINE
  5
2C
  8
0
 66
     1
 10
0.0
 20
0.0
 30
0.0
 70
     1
  0
VERTEX
  5
775
  8
0
 10
12.294927
 20
9.443259
 30
0.0
  0
VERTEX
  5
776
  8
0
 10
10.879927
 20
9.443259
 30
0.0
  0
VERTEX
  5
777
  8
0
 10
10.879927
 20
6.908259
 30
0.0
  0
VERTEX
  5
778
  8
0
 10
12.294927
 20
6.908259
 30
0.0
  0
SEQEND
  5
779
  8
0
  0
POLYLINE
  5
2D
  8
0
 66
     1
 10
0.0
 20
0.0
 30
0.0
 70
     1
  0
VERTEX
  5
77A
  8
0
 10
11.909972
 20
2.5625
 30
0.0
  0
VERTEX
  5
77B
  8
0
 10
11.909972
 20
1.4375
 30
0.0
  0
VERTEX
  5
77C
  8
0
 10
12.347472
 20
1.4375
 30
0.0
  0
VERTEX
  5
77D
  8
0
 10
12.347472
 20
2.5625
 30
0.0
  0
SEQEND
  5
77E
  8
0
  0
ARC
  5
2E
  8
0
 10
11.866476
 20
5.783123
 30
0.0
 40
0.1875
 50
0.0
 51
90.0
  0
ARC
  5
2F
  8
0
 10
11.866476
 20
3.458123
 30
0.0
 40
0.1875
 50
270.0
 51
0.0
  0
POLYLINE
  5
30
  8
0
 66
     1
 10
0.0
 20
0.0
 30
0.0
 70
     1
  0
VERTEX
  5
77F
  8
0
 10
11.719927
 20
7.175759
 30
0.0
  0
VERTEX
  5
780
  8
0
 10
12.469927
 20
7.175759
 30
0.0
  0
VERTEX
  5
781
  8
0
 10
12.469927
 20
9.175759
 30
0.0
  0
VERTEX
  5
782
  8
0
 10
11.719927
 20
9.175759
 30
0.0
  0
SEQEND
  5
783
  8
0
  0
CIRCLE
  5
31
  8
0
 10
12.032427
 20
7.675759
 30
0.0
 40
0.1005
  0
LINE
  5
32
  8
0
 10
12.219927
 20
8.675759
 30
0.0
 11
11.844927
 21
8.675759
 31
0.0
  0
CIRCLE
  5
33
  8
0
 10
12.032427
 20
8.675759
 30
0.0
 40
0.1005
  0
LINE
  5
34
  8
0
 10
12.219927
 20
7.675759
 30
0.0
 11
11.844927
 21
7.675759
 31
0.0
  0
POLYLINE
  5
35
  8
0
 66
     1
 10
0.0
 20
0.0
 30
0.0
 70
     1
  0
VERTEX
  5
784
  8
0
 10
1.972472
 20
15.3125
 30
0.0
  0
VERTEX
  5
785
  8
0
 10
1.972472
 20
14.8125
 30
0.0
  0
VERTEX
  5
786
  8
0
 10
15.972472
 20
14.8125
 30
0.0
  0
VERTEX
  5
787
  8
0
 10
15.972472
 20
15.3125
 30
0.0
  0
SEQEND
  5
788
  8
0
  0
POLYLINE
  5
36
  8
0
 66
     1
 10
0.0
 20
0.0
 30
0.0
 70
     1
  0
VERTEX
  5
789
  8
0
 10
11.909972
 20
14.1875
 30
0.0
  0
VERTEX
  5
78A
  8
0
 10
11.909972
 20
13.0625
 30
0.0
  0
VERTEX
  5
78B
  8
0
 10
12.347472
 20
13.0625
 30
0.0
  0
VERTEX
  5
78C
  8
0
 10
12.347472
 20
14.1875
 30
0.0
  0
SEQEND
  5
78D
  8
0
  0
POLYLINE
  5
37
  8
0
 66
     1
 10
0.0
 20
0.0
 30
0.0
 70
     1
  0
VERTEX
  5
78E
  8
0
 10
0.0
 20
15.625
 30
0.0
  0
VERTEX
  5
78F
  8
0
 10
0.0
 20
11.625
 30
0.0
  0
VERTEX
  5
790
  8
0
 10
1.25
 20
11.625
 30
0.0
  0
VERTEX
  5
791
  8
0
 10
1.25
 20
15.625
 30
0.0
  0
SEQEND
  5
792
  8
0
  0
INSERT
  5
38
  8
0
  2
_OPEN30
 10
5.60635
 20
7.81659
 30
0.0
 41
0.18
 42
0.18
 43
0.18
 50
210.975251
1001
ACAD
1000
DSTYLE
1002
{
1070
     5
1000
OPEN30
1070
    77
1070
     0
1070
   147
1040
0.09
1070
   341
1005
503F700400000022
1002
}
  0
POLYLINE
  5
5A1
  8
0
 66
     1
 10
0.0
 20
0.0
 30
0.0
 70
   128
1001
ACAD
1000
R13OBJECT
1002
{
1005
38
1002
}
  0
VERTEX
  5
90F
  8
0
 10
5.76068
 20
7.90923
 30
0.0
  0
VERTEX
  5
910
  8
0
 10
6.150293
 20
8.143104
 30
0.0
  0
VERTEX
  5
911
  8
0
 10
6.150293
 20
8.376329
 30
0.0
  0
SEQEND
  5
912
  8
0
  0
TEXT
  5
39
  8
0
 10
6.222921
 20
9.660127
 30
0.0
 40
0.1875
  1
BATTERY
 50
270.0
1001
ACAD
1000
MTEXTBEGIN
1070
    73
1070
     1
1070
    44
1040
1.0
1070
    74
1070
     0
1000
MTEXTEND
  0
TEXT
  5
5A6
  8
0
 10
5.910421
 20
9.347627
 30
0.0
 40
0.1875
  1
RAIL
 50
270.0
1001
ACAD
1000
R13OBJECT
1002
{
1005
39
1002
}
  0
POLYLINE
  5
3A
  8
0
 66
     1
 10
0.0
 20
0.0
 30
0.0
 70
     1
  0
VERTEX
  5
793
  8
0
 10
5.529927
 20
9.738259
 30
0.0
  0
VERTEX
  5
794
  8
0
 10
5.529927
 20
6.613259
 30
0.0
 42
0.414214
  0
VERTEX
  5
795
  8
0
 10
6.029927
 20
6.113259
 30
0.0
  0
VERTEX
  5
796
  8
0
 10
10.154927
 20
6.113259
 30
0.0
 42
0.414214
  0
VERTEX
  5
797
  8
0
 10
10.654927
 20
6.613259
 30
0.0
  0
VERTEX
  5
798
  8
0
 10
10.654927
 20
9.738259
 30
0.0
 42
0.414214
  0
VERTEX
  5
799
  8
0
 10
10.154927
 20
10.238259
 30
0.0
  0
VERTEX
  5
79A
  8
0
 10
6.029927
 20
10.238259
 30
0.0
 42
0.414214
  0
SEQEND
  5
79B
  8
0
  0
POLYLINE
  5
3B
  8
0
 66
     1
 10
0.0
 20
0.0
 30
0.0
 70
     1
  0
VERTEX
  5
79C
  8
0
 10
5.597472
 20
2.5625
 30
0.0
  0
VERTEX
  5
79D
  8
0
 10
5.597472
 20
1.4375
 30
0.0
  0
VERTEX
  5
79E
  8
0
 10
6.034972
 20
1.4375
 30
0.0
  0
VERTEX
  5
79F
  8
0
 10
6.034972
 20
2.5625
 30
0.0
  0
SEQEND
  5
7A0
  8
0
  0
POLYLINE
  5
3C
  8
0
 66
     1
 10
0.0
 20
0.0
 30
0.0
 70
     1
  0
VERTEX
  5
7A1
  8
0
 10
11.279927
 20
6.113259
 30
0.0
  0
VERTEX
  5
7A2
  8
0
 10
11.279927
 20
6.738259
 30
0.0
  0
VERTEX
  5
7A3
  8
0
 10
10.654927
 20
6.738259
 30
0.0
  0
VERTEX
  5
7A4
  8
0
 10
10.654927
 20
7.175759
 30
0.0
  0
VERTEX
  5
7A5
  8
0
 10
9.904927
 20
7.175759
 30
0.0
  0
VERTEX
  5
7A6
  8
0
 10
9.904927
 20
9.175759
 30
0.0
  0
VERTEX
  5
7A7
  8
0
 10
10.654927
 20
9.175759
 30
0.0
  0
VERTEX
  5
7A8
  8
0
 10
10.654927
 20
9.613259
 30
0.0
  0
VERTEX
  5
7A9
  8
0
 10
11.279927
 20
9.613259
 30
0.0
  0
VERTEX
  5
7AA
  8
0
 10
11.279927
 20
10.238259
 30
0.0
  0
VERTEX
  5
7AB
  8
0
 10
6.154927
 20
10.238259
 30
0.0
  0
VERTEX
  5
7AC
  8
0
 10
6.154927
 20
10.863259
 30
0.0
  0
VERTEX
  5
7AD
  8
0
 10
5.529927
 20
10.863259
 30
0.0
  0
VERTEX
  5
7AE
  8
0
 10
5.529927
 20
5.488259
 30
0.0
  0
VERTEX
  5
7AF
  8
0
 10
6.154927
 20
5.488259
 30
0.0
  0
VERTEX
  5
7B0
  8
0
 10
6.154927
 20
6.113259
 30
0.0
  0
SEQEND
  5
7B1
  8
0
  0
LINE
  5
3D
  8
0
 10
6.029927
 20
5.800759
 30
0.0
 11
5.654927
 21
5.800759
 31
0.0
  0
CIRCLE
  5
3E
  8
0
 10
5.842427
 20
5.800759
 30
0.0
 40
0.1005
  0
LINE
  5
3F
  8
0
 10
6.029927
 20
10.550759
 30
0.0
 11
5.654927
 21
10.550759
 31
0.0
  0
CIRCLE
  5
40
  8
0
 10
5.842427
 20
10.550759
 30
0.0
 40
0.1005
  0
POLYLINE
  5
41
  8
0
 66
     1
 10
0.0
 20
0.0
 30
0.0
 70
     1
  0
VERTEX
  5
7B2
  8
0
 10
5.597472
 20
14.1875
 30
0.0
  0
VERTEX
  5
7B3
  8
0
 10
5.597472
 20
13.0625
 30
0.0
  0
VERTEX
  5
7B4
  8
0
 10
6.034972
 20
13.0625
 30
0.0
  0
VERTEX
  5
7B5
  8
0
 10
6.034972
 20
14.1875
 30
0.0
  0
SEQEND
  5
7B6
  8
0
  0
POLYLINE
  5
42
  8
0
 66
     1
 10
0.0
 20
0.0
 30
0.0
 70
     1
  0
VERTEX
  5
7B7
  8
0
 10
4.054972
 20
3.5
 30
0.0
  0
VERTEX
  5
7B8
  8
0
 10
4.054972
 20
4.5
 30
0.0
  0
VERTEX
  5
7B9
  8
0
 10
5.804972
 20
4.5
 30
0.0
  0
VERTEX
  5
7BA
  8
0
 10
5.804972
 20
3.5
 30
0.0
  0
SEQEND
  5
7BB
  8
0
  0
POLYLINE
  5
43
  8
0
 66
     1
 10
0.0
 20
0.0
 30
0.0
 70
     1
  0
VERTEX
  5
7BC
  8
0
 10
0.0
 20
4.0
 30
0.0
  0
VERTEX
  5
7BD
  8
0
 10
0.0
 20
0.0
 30
0.0
  0
VERTEX
  5
7BE
  8
0
 10
1.25
 20
0.0
 30
0.0
  0
VERTEX
  5
7BF
  8
0
 10
1.25
 20
4.0
 30
0.0
  0
SEQEND
  5
7C0
  8
0
  0
POLYLINE
  5
44
  8
0
 66
     1
 10
0.0
 20
0.0
 30
0.0
 70
     1
  0
VERTEX
  5
7C1
  8
0
 10
1.972472
 20
14.8125
 30
0.0
  0
VERTEX
  5
7C2
  8
0
 10
1.972472
 20
0.8125
 30
0.0
  0
VERTEX
  5
7C3
  8
0
 10
2.472472
 20
0.8125
 30
0.0
  0
VERTEX
  5
7C4
  8
0
 10
2.472472
 20
14.8125
 30
0.0
  0
SEQEND
  5
7C5
  8
0
  0
POLYLINE
  5
45
  8
0
 66
     1
 10
0.0
 20
0.0
 30
0.0
 70
     1
  0
VERTEX
  5
7C6
  8
0
 10
4.687472
 20
1.035
 30
0.0
  0
VERTEX
  5
7C7
  8
0
 10
4.687472
 20
14.59
 30
0.0
  0
VERTEX
  5
7C8
  8
0
 10
5.172472
 20
14.59
 30
0.0
  0
VERTEX
  5
7C9
  8
0
 10
5.172472
 20
1.035
 30
0.0
  0
SEQEND
  5
7CA
  8
0
  0
POLYLINE
  5
46
  8
0
 66
     1
 10
0.0
 20
0.0
 30
0.0
 70
     1
  0
VERTEX
  5
7CB
  8
0
 10
2.472472
 20
14.625
 30
0.0
  0
VERTEX
  5
7CC
  8
0
 10
2.472472
 20
12.625
 30
0.0
  0
VERTEX
  5
7CD
  8
0
 10
4.472472
 20
12.625
 30
0.0
  0
VERTEX
  5
7CE
  8
0
 10
4.472472
 20
14.625
 30
0.0
  0
SEQEND
  5
7CF
  8
0
  0
POLYLINE
  5
47
  8
0
 66
     1
 10
0.0
 20
0.0
 30
0.0
 70
     1
  0
VERTEX
  5
7D0
  8
0
 10
2.472472
 20
14.625
 30
0.0
  0
VERTEX
  5
7D1
  8
0
 10
2.472472
 20
12.625
 30
0.0
  0
VERTEX
  5
7D2
  8
0
 10
2.972472
 20
12.625
 30
0.0
  0
VERTEX
  5
7D3
  8
0
 10
2.972472
 20
14.625
 30
0.0
  0
SEQEND
  5
7D4
  8
0
  0
TEXT
  5
48
  8
0
 10
2.092042
 20
9.692627
 30
0.0
 40
0.25
  1
LEFT
 50
270.0
1001
ACAD
1000
MTEXTBEGIN
1070
    73
1070
     1
1070
    44
1040
1.0
1070
    74
1070
     0
1000
MTEXTEND
  0
POLYLINE
  5
49
  8
0
 66
     1
 10
0.0
 20
0.0
 30
0.0
 70
     1
  0
VERTEX
  5
7D5
  8
0
 10
1.784972
 20
13.875
 30
0.0
  0
VERTEX
  5
7D6
  8
0
 10
0.0
 20
13.875
 30
0.0
  0
VERTEX
  5
7D7
  8
0
 10
0.0
 20
13.375
 30
0.0
  0
VERTEX
  5
7D8
  8
0
 10
1.784972
 20
13.375
 30
0.0
  0
SEQEND
  5
7D9
  8
0
  0
POLYLINE
  5
4A
  8
0
 66
     1
 10
0.0
 20
0.0
 30
0.0
 70
     1
  0
VERTEX
  5
7DA
  8
0
 10
1.576927
 20
14.561627
 30
0.0
  0
VERTEX
  5
7DB
  8
0
 10
1.576927
 20
12.688373
 30
0.0
  0
VERTEX
  5
7DC
  8
0
 10
1.25
 20
12.688373
 30
0.0
  0
VERTEX
  5
7DD
  8
0
 10
1.25
 20
14.561627
 30
0.0
  0
SEQEND
  5
7DE
  8
0
  0
LINE
  5
4B
  8
0
 10
2.426074
 20
12.8125
 30
0.0
 11
2.01887
 21
12.8125
 31
0.0
  0
CIRCLE
  5
4C
  8
0
 10
2.222472
 20
12.8125
 30
0.0
 40
0.125
  0
POLYLINE
  5
4D
  8
0
 66
     1
 10
0.0
 20
0.0
 30
0.0
 70
     1
  0
VERTEX
  5
7DF
  8
0
 10
1.784972
 20
14.145348
 30
0.0
  0
VERTEX
  5
7E0
  8
0
 10
1.784972
 20
13.104652
 30
0.0
  0
VERTEX
  5
7E1
  8
0
 10
1.576927
 20
13.104652
 30
0.0
  0
VERTEX
  5
7E2
  8
0
 10
1.576927
 20
14.145348
 30
0.0
  0
SEQEND
  5
7E3
  8
0
  0
TEXT
  5
4E
  8
0
 10
2.634057
 20
14.044289
 30
0.0
 40
0.1875
  1
BLOCK
 50
270.0
1001
ACAD
1000
MTEXTBEGIN
1070
    73
1070
     1
1070
    44
1040
1.0
1070
    74
1070
     0
1000
MTEXTEND
  0
TEXT
  5
4F
  8
0
 10
2.159353
 20
13.564384
 30
0.0
 40
0.15
  1
1/4"
 50
270.0
  0
LINE
  5
50
  8
0
 10
2.222472
 20
13.016102
 30
0.0
 11
2.222472
 21
12.608898
 31
0.0
  0
CIRCLE
  5
51
  8
0
 10
2.222472
 20
10.3125
 30
0.0
 40
0.125
  0
LINE
  5
52
  8
0
 10
2.426074
 20
10.3125
 30
0.0
 11
2.01887
 21
10.3125
 31
0.0
  0
TEXT
  5
53
  8
0
 10
2.159353
 20
11.033237
 30
0.0
 40
0.15
  1
1/4"
 50
270.0
  0
LINE
  5
54
  8
0
 10
2.222472
 20
10.516102
 30
0.0
 11
2.222472
 21
10.108898
 31
0.0
  0
LINE
  5
55
  8
0
 10
2.426074
 20
7.8125
 30
0.0
 11
2.01887
 21
7.8125
 31
0.0
  0
CIRCLE
  5
56
  8
0
 10
2.222472
 20
7.8125
 30
0.0
 40
0.125
  0
CIRCLE
  5
57
  8
0
 10
2.222472
 20
7.8125
 30
0.0
 40
0.125
  0
LINE
  5
58
  8
0
 10
2.222472
 20
8.016102
 30
0.0
 11
2.222472
 21
7.608898
 31
0.0
  0
TEXT
  5
59
  8
0
 10
2.159353
 20
8.455505
 30
0.0
 40
0.15
  1
1/4"
 50
270.0
  0
LINE
  5
5A
  8
0
 10
2.426074
 20
5.3125
 30
0.0
 11
2.01887
 21
5.3125
 31
0.0
  0
CIRCLE
  5
5B
  8
0
 10
2.222472
 20
5.3125
 30
0.0
 40
0.125
  0
TEXT
  5
5C
  8
0
 10
2.159353
 20
5.986473
 30
0.0
 40
0.15
  1
1/4"
 50
270.0
  0
LINE
  5
5D
  8
0
 10
2.222472
 20
5.516102
 30
0.0
 11
2.222472
 21
5.108898
 31
0.0
  0
TEXT
  5
5E
  8
0
 10
3.703913
 20
10.702631
 30
0.0
 40
0.1875
  1
TENSIONER
 50
270.0
1001
ACAD
1000
MTEXTBEGIN
1070
    73
1070
     1
1070
    44
1040
1.0
1070
    74
1070
     0
1000
MTEXTEND
  0
TEXT
  5
5F8
  8
0
 10
3.391413
 20
10.358881
 30
0.0
 40
0.1875
  1
BLOCK
 50
270.0
1001
ACAD
1000
R13OBJECT
1002
{
1005
5E
1002
}
  0
INSERT
  5
5F
  8
0
  2
_OPEN30
 10
4.406294
 20
10.999643
 30
0.0
 41
0.18
 42
0.18
 43
0.18
 50
90.0
1001
ACAD
1000
DSTYLE
1002
{
1070
     5
1000
OPEN30
1070
    77
1070
     0
1070
   147
1040
0.09
1070
   341
1005
B833700400000022
1002
}
  0
POLYLINE
  5
5F9
  8
0
 66
     1
 10
0.0
 20
0.0
 30
0.0
 70
   128
1001
ACAD
1000
R13OBJECT
1002
{
1005
5F
1002
}
  0
VERTEX
  5
913
  8
0
 10
4.406294
 20
10.819643
 30
0.0
  0
VERTEX
  5
914
  8
0
 10
4.406294
 20
10.455021
 30
0.0
  0
VERTEX
  5
915
  8
0
 10
4.037525
 20
10.050947
 30
0.0
  0
SEQEND
  5
916
  8
0
  0
POLYLINE
  5
60
  8
0
 66
     1
 10
0.0
 20
0.0
 30
0.0
 70
     1
  0
VERTEX
  5
7E4
  8
0
 10
4.054972
 20
12.125
 30
0.0
  0
VERTEX
  5
7E5
  8
0
 10
4.054972
 20
11.125
 30
0.0
  0
VERTEX
  5
7E6
  8
0
 10
5.804972
 20
11.125
 30
0.0
  0
VERTEX
  5
7E7
  8
0
 10
5.804972
 20
12.125
 30
0.0
  0
SEQEND
  5
7E8
  8
0
  0
CIRCLE
  5
61
  8
0
 10
4.429972
 20
11.625
 30
0.0
 40
0.1875
  0
LINE
  5
62
  8
0
 10
4.617472
 20
11.625
 30
0.0
 11
4.242472
 21
11.625
 31
0.0
  0
CIRCLE
  5
63
  8
0
 10
4.429972
 20
11.625
 30
0.0
 40
0.1005
  0
POLYLINE
  5
64
  8
0
 66
     1
 10
0.0
 20
0.0
 30
0.0
 70
     1
  0
VERTEX
  5
7E9
  8
0
 10
3.972472
 20
14.625
 30
0.0
  0
VERTEX
  5
7EA
  8
0
 10
3.972472
 20
12.625
 30
0.0
  0
VERTEX
  5
7EB
  8
0
 10
4.472472
 20
12.625
 30
0.0
  0
VERTEX
  5
7EC
  8
0
 10
4.472472
 20
14.625
 30
0.0
  0
SEQEND
  5
7ED
  8
0
  0
TEXT
  5
65
  8
0
 10
3.588554
 20
14.107881
 30
0.0
 40
0.15
  1
1/4"
 50
270.0
  0
LINE
  5
66
  8
0
 10
3.252174
 20
13.0
 30
0.0
 11
3.692769
 21
13.0
 31
0.0
  0
LINE
  5
67
  8
0
 10
3.252174
 20
14.25
 30
0.0
 11
3.692769
 21
14.25
 31
0.0
  0
CIRCLE
  5
68
  8
0
 10
3.472472
 20
14.25
 30
0.0
 40
0.125
  0
LINE
  5
69
  8
0
 10
3.472472
 20
14.029702
 30
0.0
 11
3.472472
 21
14.470298
 31
0.0
  0
TEXT
  5
6A
  8
0
 10
3.076432
 20
13.533327
 30
0.0
 40
0.15
  1
1/4"
 50
270.0
  0
CIRCLE
  5
6B
  8
0
 10
3.472472
 20
13.0
 30
0.0
 40
0.125
  0
LINE
  5
6C
  8
0
 10
3.472472
 20
12.779702
 30
0.0
 11
3.472472
 21
13.220298
 31
0.0
  0
TEXT
  5
6D
  8
0
 10
4.099618
 20
14.191029
 30
0.0
 40
0.1875
  1
BEARING
 50
270.0
1001
ACAD
1000
MTEXTBEGIN
1070
    73
1070
     1
1070
    44
1040
1.0
1070
    74
1070
     0
1000
MTEXTEND
  0
TEXT
  5
6E
  8
0
 10
4.199157
 20
15.287586
 30
0.0
 40
0.15
  1
1/4"
 50
270.0
  0
LINE
  5
6F
  8
0
 10
4.176074
 20
15.0625
 30
0.0
 11
3.76887
 21
15.0625
 31
0.0
  0
CIRCLE
  5
70
  8
0
 10
3.972472
 20
15.0625
 30
0.0
 40
0.125
  0
LINE
  5
71
  8
0
 10
3.972472
 20
15.266102
 30
0.0
 11
3.972472
 21
14.858898
 31
0.0
  0
TEXT
  5
72
  8
0
 10
4.096261
 20
12.043111
 30
0.0
 40
0.15
  1
#7
 50
270.0
  0
POLYLINE
  5
73
  8
0
 66
     1
 10
0.0
 20
0.0
 30
0.0
 70
     1
  0
VERTEX
  5
7EE
  8
0
 10
5.597472
 20
13.375
 30
0.0
  0
VERTEX
  5
7EF
  8
0
 10
5.597472
 20
13.875
 30
0.0
  0
VERTEX
  5
7F0
  8
0
 10
4.847472
 20
13.875
 30
0.0
  0
VERTEX
  5
7F1
  8
0
 10
4.847472
 20
13.375
 30
0.0
  0
SEQEND
  5
7F2
  8
0
  0
POLYLINE
  5
74
  8
0
 66
     1
 10
0.0
 20
0.0
 30
0.0
 70
     1
  0
VERTEX
  5
7F3
  8
0
 10
5.597472
 20
14.1075
 30
0.0
  0
VERTEX
  5
7F4
  8
0
 10
5.597472
 20
13.1425
 30
0.0
  0
VERTEX
  5
7F5
  8
0
 10
5.177472
 20
13.1425
 30
0.0
  0
VERTEX
  5
7F6
  8
0
 10
5.177472
 20
13.235
 30
0.0
  0
VERTEX
  5
7F7
  8
0
 10
5.012472
 20
13.235
 30
0.0
  0
VERTEX
  5
7F8
  8
0
 10
5.012472
 20
12.945
 30
0.0
  0
VERTEX
  5
7F9
  8
0
 10
4.847472
 20
12.945
 30
0.0
  0
VERTEX
  5
7FA
  8
0
 10
4.847472
 20
14.305
 30
0.0
  0
VERTEX
  5
7FB
  8
0
 10
5.012472
 20
14.305
 30
0.0
  0
VERTEX
  5
7FC
  8
0
 10
5.012472
 20
14.015
 30
0.0
  0
VERTEX
  5
7FD
  8
0
 10
5.177472
 20
14.015
 30
0.0
  0
VERTEX
  5
7FE
  8
0
 10
5.177472
 20
14.1075
 30
0.0
  0
SEQEND
  5
7FF
  8
0
  0
POLYLINE
  5
75
  8
0
 66
     1
 10
0.0
 20
0.0
 30
0.0
 70
     1
  0
VERTEX
  5
800
  8
0
 10
4.472472
 20
14.0
 30
0.0
  0
VERTEX
  5
801
  8
0
 10
4.472472
 20
13.25
 30
0.0
  0
VERTEX
  5
802
  8
0
 10
4.847472
 20
13.25
 30
0.0
  0
VERTEX
  5
803
  8
0
 10
4.847472
 20
14.0
 30
0.0
  0
SEQEND
  5
804
  8
0
  0
LINE
  5
76
  8
0
 10
4.429972
 20
11.4375
 30
0.0
 11
4.429972
 21
11.8125
 31
0.0
  0
TEXT
  5
77
  8
0
 10
4.851587
 20
10.70274
 30
0.0
 40
0.1875
  1
CHAIN
 50
270.0
1001
ACAD
1000
MTEXTBEGIN
1070
    73
1070
     1
1070
    44
1040
1.0
1070
    74
1070
     0
1000
MTEXTEND
  0
CIRCLE
  5
78
  8
0
 10
5.429972
 20
11.625
 30
0.0
 40
0.1875
  0
CIRCLE
  5
79
  8
0
 10
5.429972
 20
11.625
 30
0.0
 40
0.1005
  0
LINE
  5
7A
  8
0
 10
5.617472
 20
11.625
 30
0.0
 11
5.242472
 21
11.625
 31
0.0
  0
LINE
  5
7B
  8
0
 10
5.429972
 20
11.4375
 30
0.0
 11
5.429972
 21
11.8125
 31
0.0
  0
TEXT
  5
7C
  8
0
 10
5.548903
 20
12.043111
 30
0.0
 40
0.15
  1
#7
 50
270.0
  0
TEXT
  5
7D
  8
0
 10
5.595444
 20
10.459698
 30
0.0
 40
0.15
  1
#7
 50
270.0
  0
LINE
  5
7E
  8
0
 10
5.842427
 20
10.363259
 30
0.0
 11
5.842427
 21
10.738259
 31
0.0
  0
INSERT
  5
7F
  8
0
  2
_OPEN30
 10
-4.406294
 20
4.657437
 30
0.0
 41
0.18
 42
0.18
 43
0.18
 50
270.0
210
0.0
220
0.0
230
-1.0
1001
ACAD
1000
DSTYLE
1002
{
1070
     5
1000
OPEN30
1070
    77
1070
     0
1070
   147
1040
0.09
1070
   341
1005
7437700400000022
1002
}
  0
POLYLINE
  5
61F
  8
0
 66
     1
 10
0.0
 20
0.0
 30
0.0
 70
   128
210
0.0
220
0.0
230
-1.0
1001
ACAD
1000
R13OBJECT
1002
{
1005
7F
1002
}
  0
VERTEX
  5
917
  8
0
 10
-4.406294
 20
4.837437
 30
0.0
  0
VERTEX
  5
918
  8
0
 10
-4.406294
 20
5.202058
 30
0.0
  0
VERTEX
  5
919
  8
0
 10
-4.037525
 20
5.606132
 30
0.0
  0
SEQEND
  5
91A
  8
0
  0
CIRCLE
  5
80
  8
0
 10
4.429972
 20
4.0
 30
0.0
 40
0.1875
  0
LINE
  5
81
  8
0
 10
4.617472
 20
4.0
 30
0.0
 11
4.242472
 21
4.0
 31
0.0
  0
CIRCLE
  5
82
  8
0
 10
4.429972
 20
4.0
 30
0.0
 40
0.1005
  0
TEXT
  5
83
  8
0
 10
3.703913
 20
6.503775
 30
0.0
 40
0.1875
  1
TENSIONER
 50
270.0
1001
ACAD
1000
MTEXTBEGIN
1070
    73
1070
     1
1070
    44
1040
1.0
1070
    74
1070
     0
1000
MTEXTEND
  0
TEXT
  5
624
  8
0
 10
3.391413
 20
6.160025
 30
0.0
 40
0.1875
  1
BLOCK
 50
270.0
1001
ACAD
1000
R13OBJECT
1002
{
1005
83
1002
}
  0
TEXT
  5
84
  8
0
 10
4.096261
 20
4.418111
 30
0.0
 40
0.15
  1
#7
 50
270.0
  0
LINE
  5
85
  8
0
 10
5.229927
 20
7.675759
 30
0.0
 11
4.854927
 21
7.675759
 31
0.0
  0
LINE
  5
86
  8
0
 10
5.229927
 20
8.675759
 30
0.0
 11
4.854927
 21
8.675759
 31
0.0
  0
POLYLINE
  5
87
  8
0
 66
     1
 10
0.0
 20
0.0
 30
0.0
 70
     1
  0
VERTEX
  5
805
  8
0
 10
4.729927
 20
7.175759
 30
0.0
  0
VERTEX
  5
806
  8
0
 10
5.479927
 20
7.175759
 30
0.0
  0
VERTEX
  5
807
  8
0
 10
5.479927
 20
9.175759
 30
0.0
  0
VERTEX
  5
808
  8
0
 10
4.729927
 20
9.175759
 30
0.0
  0
SEQEND
  5
809
  8
0
  0
TEXT
  5
88
  8
0
 10
4.788717
 20
8.581334
 30
0.0
 40
0.15
  1
#7
 50
270.0
  0
LINE
  5
89
  8
0
 10
5.042427
 20
8.863259
 30
0.0
 11
5.042427
 21
8.488259
 31
0.0
  0
CIRCLE
  5
8A
  8
0
 10
5.042427
 20
8.675759
 30
0.0
 40
0.1005
  0
TEXT
  5
8B
  8
0
 10
4.835259
 20
7.525725
 30
0.0
 40
0.15
  1
#7
 50
270.0
  0
CIRCLE
  5
8C
  8
0
 10
5.042427
 20
7.675759
 30
0.0
 40
0.1005
  0
LINE
  5
8D
  8
0
 10
5.042427
 20
7.863259
 30
0.0
 11
5.042427
 21
7.488259
 31
0.0
  0
LINE
  5
8E
  8
0
 10
5.354927
 20
7.175759
 30
0.0
 11
5.354927
 21
9.175759
 31
0.0
  0
LINE
  5
8F
  8
0
 10
4.429972
 20
3.8125
 30
0.0
 11
4.429972
 21
4.1875
 31
0.0
  0
TEXT
  5
90
  8
0
 10
5.564417
 20
6.159643
 30
0.0
 40
0.15
  1
#7
 50
270.0
  0
LINE
  5
91
  8
0
 10
5.842427
 20
5.613259
 30
0.0
 11
5.842427
 21
5.988259
 31
0.0
  0
CIRCLE
  5
92
  8
0
 10
5.429972
 20
4.0
 30
0.0
 40
0.1875
  0
LINE
  5
93
  8
0
 10
5.617472
 20
4.0
 30
0.0
 11
5.242472
 21
4.0
 31
0.0
  0
LINE
  5
94
  8
0
 10
5.429972
 20
3.8125
 30
0.0
 11
5.429972
 21
4.1875
 31
0.0
  0
CIRCLE
  5
95
  8
0
 10
5.429972
 20
4.0
 30
0.0
 40
0.1005
  0
TEXT
  5
96
  8
0
 10
5.548903
 20
4.418111
 30
0.0
 40
0.15
  1
#7
 50
270.0
  0
POLYLINE
  5
97
  8
0
 66
     1
 10
0.0
 20
0.0
 30
0.0
 70
     1
  0
VERTEX
  5
80A
  8
0
 10
2.472472
 20
3.0
 30
0.0
  0
VERTEX
  5
80B
  8
0
 10
2.472472
 20
1.0
 30
0.0
  0
VERTEX
  5
80C
  8
0
 10
4.472472
 20
1.0
 30
0.0
  0
VERTEX
  5
80D
  8
0
 10
4.472472
 20
3.0
 30
0.0
  0
SEQEND
  5
80E
  8
0
  0
POLYLINE
  5
98
  8
0
 66
     1
 10
0.0
 20
0.0
 30
0.0
 70
     1
  0
VERTEX
  5
80F
  8
0
 10
2.472472
 20
3.0
 30
0.0
  0
VERTEX
  5
810
  8
0
 10
2.472472
 20
1.0
 30
0.0
  0
VERTEX
  5
811
  8
0
 10
2.972472
 20
1.0
 30
0.0
  0
VERTEX
  5
812
  8
0
 10
2.972472
 20
3.0
 30
0.0
  0
SEQEND
  5
813
  8
0
  0
POLYLINE
  5
99
  8
0
 66
     1
 10
0.0
 20
0.0
 30
0.0
 70
     1
  0
VERTEX
  5
814
  8
0
 10
1.784972
 20
2.25
 30
0.0
  0
VERTEX
  5
815
  8
0
 10
0.0
 20
2.25
 30
0.0
  0
VERTEX
  5
816
  8
0
 10
0.0
 20
1.75
 30
0.0
  0
VERTEX
  5
817
  8
0
 10
1.784972
 20
1.75
 30
0.0
  0
SEQEND
  5
818
  8
0
  0
POLYLINE
  5
9A
  8
0
 66
     1
 10
0.0
 20
0.0
 30
0.0
 70
     1
  0
VERTEX
  5
819
  8
0
 10
1.576927
 20
2.936627
 30
0.0
  0
VERTEX
  5
81A
  8
0
 10
1.576927
 20
1.063373
 30
0.0
  0
VERTEX
  5
81B
  8
0
 10
1.25
 20
1.063373
 30
0.0
  0
VERTEX
  5
81C
  8
0
 10
1.25
 20
2.936627
 30
0.0
  0
SEQEND
  5
81D
  8
0
  0
LINE
  5
9B
  8
0
 10
2.426074
 20
2.8125
 30
0.0
 11
2.01887
 21
2.8125
 31
0.0
  0
CIRCLE
  5
9C
  8
0
 10
2.222472
 20
2.8125
 30
0.0
 40
0.125
  0
POLYLINE
  5
9D
  8
0
 66
     1
 10
0.0
 20
0.0
 30
0.0
 70
     1
  0
VERTEX
  5
81E
  8
0
 10
1.784972
 20
2.520348
 30
0.0
  0
VERTEX
  5
81F
  8
0
 10
1.784972
 20
1.479652
 30
0.0
  0
VERTEX
  5
820
  8
0
 10
1.576927
 20
1.479652
 30
0.0
  0
VERTEX
  5
821
  8
0
 10
1.576927
 20
2.520348
 30
0.0
  0
SEQEND
  5
822
  8
0
  0
TEXT
  5
9E
  8
0
 10
2.634057
 20
2.419289
 30
0.0
 40
0.1875
  1
BLOCK
 50
270.0
1001
ACAD
1000
MTEXTBEGIN
1070
    73
1070
     1
1070
    44
1040
1.0
1070
    74
1070
     0
1000
MTEXTEND
  0
TEXT
  5
9F
  8
0
 10
2.159353
 20
3.455326
 30
0.0
 40
0.15
  1
1/4"
 50
270.0
  0
LINE
  5
A0
  8
0
 10
2.222472
 20
3.016102
 30
0.0
 11
2.222472
 21
2.608898
 31
0.0
  0
POLYLINE
  5
A1
  8
0
 66
     1
 10
0.0
 20
0.0
 30
0.0
 70
     1
  0
VERTEX
  5
823
  8
0
 10
3.972472
 20
3.0
 30
0.0
  0
VERTEX
  5
824
  8
0
 10
3.972472
 20
1.0
 30
0.0
  0
VERTEX
  5
825
  8
0
 10
4.472472
 20
1.0
 30
0.0
  0
VERTEX
  5
826
  8
0
 10
4.472472
 20
3.0
 30
0.0
  0
SEQEND
  5
827
  8
0
  0
TEXT
  5
A2
  8
0
 10
4.199157
 20
0.787586
 30
0.0
 40
0.15
  1
1/4"
 50
270.0
  0
LINE
  5
A3
  8
0
 10
3.972472
 20
0.358898
 30
0.0
 11
3.972472
 21
0.766102
 31
0.0
  0
CIRCLE
  5
A4
  8
0
 10
3.972472
 20
0.5625
 30
0.0
 40
0.125
  0
TEXT
  5
A5
  8
0
 10
3.588554
 20
2.482881
 30
0.0
 40
0.15
  1
1/4"
 50
270.0
  0
LINE
  5
A6
  8
0
 10
3.252174
 20
2.625
 30
0.0
 11
3.692769
 21
2.625
 31
0.0
  0
LINE
  5
A7
  8
0
 10
3.252174
 20
1.375
 30
0.0
 11
3.692769
 21
1.375
 31
0.0
  0
CIRCLE
  5
A8
  8
0
 10
3.472472
 20
2.625
 30
0.0
 40
0.125
  0
LINE
  5
A9
  8
0
 10
3.472472
 20
2.404702
 30
0.0
 11
3.472472
 21
2.845298
 31
0.0
  0
TEXT
  5
AA
  8
0
 10
3.076432
 20
1.908327
 30
0.0
 40
0.15
  1
1/4"
 50
270.0
  0
CIRCLE
  5
AB
  8
0
 10
3.472472
 20
1.375
 30
0.0
 40
0.125
  0
LINE
  5
AC
  8
0
 10
3.472472
 20
1.154702
 30
0.0
 11
3.472472
 21
1.595298
 31
0.0
  0
TEXT
  5
AD
  8
0
 10
4.099618
 20
2.566029
 30
0.0
 40
0.1875
  1
BEARING
 50
270.0
1001
ACAD
1000
MTEXTBEGIN
1070
    73
1070
     1
1070
    44
1040
1.0
1070
    74
1070
     0
1000
MTEXTEND
  0
LINE
  5
AE
  8
0
 10
4.176074
 20
0.5625
 30
0.0
 11
3.76887
 21
0.5625
 31
0.0
  0
POLYLINE
  5
AF
  8
0
 66
     1
 10
0.0
 20
0.0
 30
0.0
 70
     1
  0
VERTEX
  5
828
  8
0
 10
5.597472
 20
2.4825
 30
0.0
  0
VERTEX
  5
829
  8
0
 10
5.597472
 20
1.5175
 30
0.0
  0
VERTEX
  5
82A
  8
0
 10
5.177472
 20
1.5175
 30
0.0
  0
VERTEX
  5
82B
  8
0
 10
5.177472
 20
1.61
 30
0.0
  0
VERTEX
  5
82C
  8
0
 10
5.012472
 20
1.61
 30
0.0
  0
VERTEX
  5
82D
  8
0
 10
5.012472
 20
1.32
 30
0.0
  0
VERTEX
  5
82E
  8
0
 10
4.847472
 20
1.32
 30
0.0
  0
VERTEX
  5
82F
  8
0
 10
4.847472
 20
2.68
 30
0.0
  0
VERTEX
  5
830
  8
0
 10
5.012472
 20
2.68
 30
0.0
  0
VERTEX
  5
831
  8
0
 10
5.012472
 20
2.39
 30
0.0
  0
VERTEX
  5
832
  8
0
 10
5.177472
 20
2.39
 30
0.0
  0
VERTEX
  5
833
  8
0
 10
5.177472
 20
2.4825
 30
0.0
  0
SEQEND
  5
834
  8
0
  0
POLYLINE
  5
B0
  8
0
 66
     1
 10
0.0
 20
0.0
 30
0.0
 70
     1
  0
VERTEX
  5
835
  8
0
 10
5.597472
 20
1.75
 30
0.0
  0
VERTEX
  5
836
  8
0
 10
5.597472
 20
2.25
 30
0.0
  0
VERTEX
  5
837
  8
0
 10
4.847472
 20
2.25
 30
0.0
  0
VERTEX
  5
838
  8
0
 10
4.847472
 20
1.75
 30
0.0
  0
SEQEND
  5
839
  8
0
  0
POLYLINE
  5
B1
  8
0
 66
     1
 10
0.0
 20
0.0
 30
0.0
 70
     1
  0
VERTEX
  5
83A
  8
0
 10
4.472472
 20
2.375
 30
0.0
  0
VERTEX
  5
83B
  8
0
 10
4.472472
 20
1.625
 30
0.0
  0
VERTEX
  5
83C
  8
0
 10
4.847472
 20
1.625
 30
0.0
  0
VERTEX
  5
83D
  8
0
 10
4.847472
 20
2.375
 30
0.0
  0
SEQEND
  5
83E
  8
0
  0
CIRCLE
  5
B2
  8
0
 10
11.796826
 20
3.526873
 30
0.0
 40
0.076
  0
LINE
  5
B3
  8
0
 10
11.796826
 20
3.693231
 30
0.0
 11
11.796826
 21
3.360515
 31
0.0
  0
CIRCLE
  5
B4
  8
0
 10
9.611126
 20
3.526873
 30
0.0
 40
0.076
  0
LINE
  5
B5
  8
0
 10
9.611126
 20
3.693231
 30
0.0
 11
9.611126
 21
3.360515
 31
0.0
  0
LINE
  5
B6
  8
0
 10
9.353976
 20
5.783123
 30
0.0
 11
9.353976
 21
3.458123
 31
0.0
  0
TEXT
  5
B7
  8
0
 10
6.507206
 20
3.675248
 30
0.0
 40
0.15
  1
#29
 50
270.0
  0
POLYLINE
  5
B8
  8
0
 66
     1
 10
0.0
 20
0.0
 30
0.0
 70
     1
  0
VERTEX
  5
83F
  8
0
 10
9.086967
 20
3.14652
 30
0.0
  0
VERTEX
  5
840
  8
0
 10
9.086967
 20
5.09652
 30
0.0
 42
0.414214
  0
VERTEX
  5
841
  8
0
 10
8.961967
 20
5.22152
 30
0.0
  0
VERTEX
  5
842
  8
0
 10
6.511967
 20
5.22152
 30
0.0
 42
0.414214
  0
VERTEX
  5
843
  8
0
 10
6.386967
 20
5.09652
 30
0.0
  0
VERTEX
  5
844
  8
0
 10
6.386967
 20
3.14652
 30
0.0
 42
0.414214
  0
VERTEX
  5
845
  8
0
 10
6.511967
 20
3.02152
 30
0.0
  0
VERTEX
  5
846
  8
0
 10
8.961967
 20
3.02152
 30
0.0
 42
0.414214
  0
SEQEND
  5
847
  8
0
  0
TEXT
  5
B9
  8
0
 10
8.811329
 20
13.524593
 30
0.0
 40
0.25
  1
MOTOR
1001
ACAD
1000
MTEXTBEGIN
1070
    73
1070
     1
1070
    44
1040
1.0
1070
    74
1070
     0
1000
MTEXTEND
  0
CIRCLE
  5
BA
  8
0
 10
8.961967
 20
5.09652
 30
0.0
 40
0.0675
  0
LINE
  5
BB
  8
0
 10
9.029467
 20
5.09652
 30
0.0
 11
8.894467
 21
5.09652
 31
0.0
  0
TEXT
  5
BC
  8
0
 10
8.855551
 20
4.943428
 30
0.0
 40
0.15
  1
#29
 50
270.0
  0
LINE
  5
BD
  8
0
 10
9.297972
 20
8.138
 30
0.0
 11
8.646972
 21
7.487
 31
0.0
  0
LINE
  5
BE
  8
0
 10
9.297972
 20
7.487
 30
0.0
 11
8.646972
 21
8.138
 31
0.0
  0
POLYLINE
  5
BF
  8
0
 66
     1
 10
0.0
 20
0.0
 30
0.0
 70
     1
  0
VERTEX
  5
848
  8
0
 10
11.264987
 20
10.486279
 30
0.0
  0
VERTEX
  5
849
  8
0
 10
11.264987
 20
12.436279
 30
0.0
 42
0.414214
  0
VERTEX
  5
84A
  8
0
 10
11.139987
 20
12.561279
 30
0.0
  0
VERTEX
  5
84B
  8
0
 10
8.689987
 20
12.561279
 30
0.0
 42
0.414214
  0
VERTEX
  5
84C
  8
0
 10
8.564987
 20
12.436279
 30
0.0
  0
VERTEX
  5
84D
  8
0
 10
8.564987
 20
10.486279
 30
0.0
 42
0.414214
  0
VERTEX
  5
84E
  8
0
 10
8.689987
 20
10.361279
 30
0.0
  0
VERTEX
  5
84F
  8
0
 10
11.139987
 20
10.361279
 30
0.0
 42
0.414214
  0
SEQEND
  5
850
  8
0
  0
CIRCLE
  5
C0
  8
0
 10
8.972472
 20
15.0625
 30
0.0
 40
0.125
  0
CIRCLE
  5
C1
  8
0
 10
8.972472
 20
15.0625
 30
0.0
 40
0.125
  0
LINE
  5
C2
  8
0
 10
9.176074
 20
15.0625
 30
0.0
 11
8.76887
 21
15.0625
 31
0.0
  0
POLYLINE
  5
C3
  8
0
 66
     1
 10
0.0
 20
0.0
 30
0.0
  0
VERTEX
  5
851
  8
0
 10
7.457472
 20
12.715
 30
0.0
  0
VERTEX
  5
852
  8
0
 10
11.30442
 20
12.715
 30
0.0
  0
VERTEX
  5
853
  8
0
 10
11.30442
 20
14.535
 30
0.0
  0
VERTEX
  5
854
  8
0
 10
7.457472
 20
14.535
 30
0.0
  0
SEQEND
  5
855
  8
0
  0
TEXT
  5
C4
  8
0
 10
7.319906
 20
14.937349
 30
0.0
 40
0.25
  1
FRONT
1001
ACAD
1000
MTEXTBEGIN
1070
    73
1070
     1
1070
    44
1040
1.0
1070
    74
1070
     0
1000
MTEXTEND
  0
TEXT
  5
C5
  8
0
 10
6.600637
 20
11.48771
 30
0.0
 40
0.1875
  1
SECONDARY
1001
ACAD
1000
MTEXTBEGIN
1070
    73
1070
     1
1070
    44
1040
1.0
1070
    74
1070
     0
1000
MTEXTEND
  0
TEXT
  5
676
  8
0
 10
6.788137
 20
11.17521
 30
0.0
 40
0.1875
  1
BATTERY
1001
ACAD
1000
R13OBJECT
1002
{
1005
C5
1002
}
  0
LINE
  5
C6
  8
0
 10
6.457472
 20
12.475
 30
0.0
 11
7.457472
 21
12.475
 31
0.0
  0
LINE
  5
C7
  8
0
 10
7.207472
 20
12.625
 30
0.0
 11
7.457472
 21
12.625
 31
0.0
  0
CIRCLE
  5
C8
  8
0
 10
7.332472
 20
12.625
 30
0.0
 40
0.09675
  0
LINE
  5
C9
  8
0
 10
8.529927
 20
10.413259
 30
0.0
 11
6.529927
 21
10.413259
 31
0.0
  0
POLYLINE
  5
CA
  8
0
 66
     1
 10
0.0
 20
0.0
 30
0.0
 70
     1
  0
VERTEX
  5
856
  8
0
 10
8.529927
 20
11.038259
 30
0.0
  0
VERTEX
  5
857
  8
0
 10
8.529927
 20
10.288259
 30
0.0
  0
VERTEX
  5
858
  8
0
 10
6.529927
 20
10.288259
 30
0.0
  0
VERTEX
  5
859
  8
0
 10
6.529927
 20
11.038259
 30
0.0
  0
SEQEND
  5
85A
  8
0
  0
LINE
  5
CB
  8
0
 10
7.457472
 20
14.775
 30
0.0
 11
6.457472
 21
14.775
 31
0.0
  0
CIRCLE
  5
CC
  8
0
 10
7.332472
 20
14.625
 30
0.0
 40
0.09675
  0
LINE
  5
CD
  8
0
 10
7.207472
 20
14.625
 30
0.0
 11
7.457472
 21
14.625
 31
0.0
  0
CIRCLE
  5
CE
  8
0
 10
6.582472
 20
12.625
 30
0.0
 40
0.09675
  0
LINE
  5
CF
  8
0
 10
6.457472
 20
12.625
 30
0.0
 11
6.707472
 21
12.625
 31
0.0
  0
LINE
  5
D0
  8
0
 10
6.676074
 20
15.0625
 30
0.0
 11
6.26887
 21
15.0625
 31
0.0
  0
CIRCLE
  5
D1
  8
0
 10
6.582472
 20
14.625
 30
0.0
 40
0.09675
  0
LINE
  5
D2
  8
0
 10
6.457472
 20
14.625
 30
0.0
 11
6.707472
 21
14.625
 31
0.0
  0
LINE
  5
D3
  8
0
 10
6.457472
 20
14.775
 30
0.0
 11
6.457472
 21
12.475
 31
0.0
  0
TEXT
  5
D4
  8
0
 10
6.50609
 20
14.411271
 30
0.0
 40
0.15
  1
#10
 50
270.0
  0
CIRCLE
  5
D5
  8
0
 10
6.472472
 20
15.0625
 30
0.0
 40
0.125
  0
LINE
  5
D6
  8
0
 10
6.472472
 20
15.266102
 30
0.0
 11
6.472472
 21
14.858898
 31
0.0
  0
LINE
  5
D7
  8
0
 10
6.582472
 20
14.5
 30
0.0
 11
6.582472
 21
14.75
 31
0.0
  0
LINE
  5
D8
  8
0
 10
6.582472
 20
12.5
 30
0.0
 11
6.582472
 21
12.75
 31
0.0
  0
TEXT
  5
D9
  8
0
 10
6.50609
 20
13.158861
 30
0.0
 40
0.15
  1
#10
 50
270.0
  0
TEXT
  5
DA
  8
0
 10
6.728726
 20
15.287586
 30
0.0
 40
0.15
  1
1/4"
 50
270.0
  0
TEXT
  5
DB
  8
0
 10
7.230839
 20
14.411271
 30
0.0
 40
0.15
  1
#10
 50
270.0
  0
LINE
  5
DC
  8
0
 10
7.332472
 20
14.5
 30
0.0
 11
7.332472
 21
14.75
 31
0.0
  0
LINE
  5
DD
  8
0
 10
7.332472
 20
12.5
 30
0.0
 11
7.332472
 21
12.75
 31
0.0
  0
TEXT
  5
DE
  8
0
 10
7.230839
 20
13.158861
 30
0.0
 40
0.15
  1
#10
 50
270.0
  0
LINE
  5
DF
  8
0
 10
7.029927
 20
10.538259
 30
0.0
 11
7.029927
 21
10.913259
 31
0.0
  0
TEXT
  5
E0
  8
0
 10
7.274818
 20
10.791048
 30
0.0
 40
0.15
  1
#7
 50
270.0
  0
LINE
  5
E1
  8
0
 10
7.217427
 20
10.725759
 30
0.0
 11
6.842427
 21
10.725759
 31
0.0
  0
CIRCLE
  5
E2
  8
0
 10
7.029927
 20
10.725759
 30
0.0
 40
0.1005
  0
LINE
  5
E3
  8
0
 10
7.457472
 20
12.475
 30
0.0
 11
7.457472
 21
14.775
 31
0.0
  0
LINE
  5
E4
  8
0
 10
8.217427
 20
10.725759
 30
0.0
 11
7.842427
 21
10.725759
 31
0.0
  0
LINE
  5
E5
  8
0
 10
8.029927
 20
10.538259
 30
0.0
 11
8.029927
 21
10.913259
 31
0.0
  0
CIRCLE
  5
E6
  8
0
 10
8.029927
 20
10.725759
 30
0.0
 40
0.1005
  0
TEXT
  5
E7
  8
0
 10
8.685226
 20
11.015007
 30
0.0
 40
0.15
  1
#29
 50
270.0
  0
TEXT
  5
E8
  8
0
 10
8.291903
 20
10.791048
 30
0.0
 40
0.15
  1
#7
 50
270.0
  0
CIRCLE
  5
E9
  8
0
 10
8.689987
 20
10.486279
 30
0.0
 40
0.0675
  0
LINE
  5
EA
  8
0
 10
8.689987
 20
10.553779
 30
0.0
 11
8.689987
 21
10.418779
 31
0.0
  0
LINE
  5
EB
  8
0
 10
8.757487
 20
10.486279
 30
0.0
 11
8.622487
 21
10.486279
 31
0.0
  0
TEXT
  5
EC
  8
0
 10
7.453928
 20
8.775242
 30
0.0
 40
0.25
  1
MAIN
1001
ACAD
1000
MTEXTBEGIN
1070
    73
1070
     1
1070
    44
1040
1.0
1070
    74
1070
     0
1000
MTEXTEND
  0
TEXT
  5
67C
  8
0
 10
7.037262
 20
8.358576
 30
0.0
 40
0.25
  1
BATTERY
1001
ACAD
1000
R13OBJECT
1002
{
1005
EC
1002
}
  0
TEXT
  5
ED
  8
0
 10
6.881887
 20
6.65639
 30
0.0
 40
0.1875
  1
SWITCH
1001
ACAD
1000
MTEXTBEGIN
1070
    73
1070
     1
1070
    44
1040
1.0
1070
    74
1070
     0
1000
MTEXTEND
  0
TEXT
  5
67D
  8
0
 10
6.788137
 20
6.34389
 30
0.0
 40
0.1875
  1
BRACKET
1001
ACAD
1000
R13OBJECT
1002
{
1005
ED
1002
}
  0
LINE
  5
EE
  8
0
 10
8.779927
 20
5.938259
 30
0.0
 11
6.279927
 21
5.938259
 31
0.0
  0
POLYLINE
  5
EF
  8
0
 66
     1
 10
0.0
 20
0.0
 30
0.0
 70
     1
  0
VERTEX
  5
85B
  8
0
 10
8.779927
 20
5.063259
 30
0.0
  0
VERTEX
  5
85C
  8
0
 10
6.279927
 20
5.063259
 30
0.0
  0
VERTEX
  5
85D
  8
0
 10
6.279927
 20
6.063259
 30
0.0
  0
VERTEX
  5
85E
  8
0
 10
8.779927
 20
6.063259
 30
0.0
  0
SEQEND
  5
85F
  8
0
  0
TEXT
  5
F0
  8
0
 10
7.150854
 20
4.314594
 30
0.0
 40
0.25
  1
SPEED
1001
ACAD
1000
MTEXTBEGIN
1070
    73
1070
     1
1070
    44
1040
1.0
1070
    74
1070
     0
1000
MTEXTEND
  0
TEXT
  5
683
  8
0
 10
6.900854
 20
3.897927
 30
0.0
 40
0.25
  1
CONTROL
1001
ACAD
1000
R13OBJECT
1002
{
1005
F0
1002
}
  0
TEXT
  5
F1
  8
0
 10
7.274818
 20
5.749786
 30
0.0
 40
0.15
  1
#7
 50
270.0
  0
LINE
  5
F2
  8
0
 10
7.029927
 20
5.813259
 30
0.0
 11
7.029927
 21
5.438259
 31
0.0
  0
LINE
  5
F3
  8
0
 10
7.217427
 20
5.625759
 30
0.0
 11
6.842427
 21
5.625759
 31
0.0
  0
CIRCLE
  5
F4
  8
0
 10
7.029927
 20
5.625759
 30
0.0
 40
0.1005
  0
INSERT
  5
F5
  8
0
  2
_OPEN30
 10
8.304713
 20
6.185891
 30
0.0
 41
0.18
 42
0.18
 43
0.18
 50
239.754902
1001
ACAD
1000
DSTYLE
1002
{
1070
     5
1000
OPEN30
1070
    77
1070
     0
1070
   147
1040
0.09
1070
   341
1005
AC33700400000022
1002
}
  0
POLYLINE
  5
684
  8
0
 66
     1
 10
0.0
 20
0.0
 30
0.0
 70
   128
1001
ACAD
1000
R13OBJECT
1002
{
1005
F5
1002
}
  0
VERTEX
  5
91B
  8
0
 10
8.395379
 20
6.341389
 30
0.0
  0
VERTEX
  5
91C
  8
0
 10
8.550559
 20
6.607533
 30
0.0
  0
VERTEX
  5
91D
  8
0
 10
8.129109
 20
6.607533
 30
0.0
  0
SEQEND
  5
91E
  8
0
  0
LINE
  5
F6
  8
0
 10
8.217427
 20
5.625759
 30
0.0
 11
7.842427
 21
5.625759
 31
0.0
  0
LINE
  5
F7
  8
0
 10
8.029927
 20
5.813259
 30
0.0
 11
8.029927
 21
5.438259
 31
0.0
  0
CIRCLE
  5
F8
  8
0
 10
8.029927
 20
5.625759
 30
0.0
 40
0.1005
  0
TEXT
  5
F9
  8
0
 10
8.291903
 20
5.749786
 30
0.0
 40
0.15
  1
#7
 50
270.0
  0
INSERT
  5
FA
  8
0
  2
_OPEN30
 10
11.076865
 20
9.262582
 30
0.0
 41
0.18
 42
0.18
 43
0.18
 50
329.369965
1001
ACAD
1000
DSTYLE
1002
{
1070
     5
1000
OPEN30
1070
    77
1070
     0
1070
   147
1040
0.09
1070
   341
1005
8833700400000022
1002
}
  0
POLYLINE
  5
689
  8
0
 66
     1
 10
0.0
 20
0.0
 30
0.0
 70
   128
1001
ACAD
1000
R13OBJECT
1002
{
1005
FA
1002
}
  0
VERTEX
  5
91F
  8
0
 10
10.921979
 20
9.354291
 30
0.0
  0
VERTEX
  5
920
  8
0
 10
10.315344
 20
9.713483
 30
0.0
  0
VERTEX
  5
921
  8
0
 10
9.973437
 20
9.713483
 30
0.0
  0
SEQEND
  5
922
  8
0
  0
TEXT
  5
FB
  8
0
 10
9.564287
 20
10.048835
 30
0.0
 40
0.1875
  1
BATTERY
 50
270.0
1001
ACAD
1000
MTEXTBEGIN
1070
    73
1070
     1
1070
    44
1040
1.0
1070
    74
1070
     0
1000
MTEXTEND
  0
TEXT
  5
68E
  8
0
 10
9.251787
 20
9.736335
 30
0.0
 40
0.1875
  1
RAIL
 50
270.0
1001
ACAD
1000
R13OBJECT
1002
{
1005
FB
1002
}
  0
TEXT
  5
FC
  8
0
 10
9.328874
 20
11.654352
 30
0.0
 40
0.25
  1
SPEED
1001
ACAD
1000
MTEXTBEGIN
1070
    73
1070
     1
1070
    44
1040
1.0
1070
    74
1070
     0
1000
MTEXTEND
  0
TEXT
  5
68F
  8
0
 10
9.078874
 20
11.237686
 30
0.0
 40
0.25
  1
CONTROL
1001
ACAD
1000
R13OBJECT
1002
{
1005
FC
1002
}
  0
TEXT
  5
FD
  8
0
 10
9.242776
 20
15.287586
 30
0.0
 40
0.15
  1
1/4"
 50
270.0
  0
LINE
  5
FE
  8
0
 10
8.972472
 20
15.266102
 30
0.0
 11
8.972472
 21
14.858898
 31
0.0
  0
CIRCLE
  5
FF
  8
0
 10
11.139987
 20
12.436279
 30
0.0
 40
0.0675
  0
LINE
  5
100
  8
0
 10
11.139987
 20
12.503779
 30
0.0
 11
11.139987
 21
12.368779
 31
0.0
  0
LINE
  5
101
  8
0
 10
11.207487
 20
12.436279
 30
0.0
 11
11.072487
 21
12.436279
 31
0.0
  0
POLYLINE
  5
102
  8
0
 66
     1
 10
0.0
 20
0.0
 30
0.0
 70
     1
  0
VERTEX
  5
860
  8
0
 10
11.30442
 20
13.975
 30
0.0
  0
VERTEX
  5
861
  8
0
 10
11.30442
 20
13.275
 30
0.0
  0
VERTEX
  5
862
  8
0
 10
11.52942
 20
13.275
 30
0.0
  0
VERTEX
  5
863
  8
0
 10
11.52942
 20
13.975
 30
0.0
  0
SEQEND
  5
864
  8
0
  0
TEXT
  5
103
  8
0
 10
11.725788
 20
15.287586
 30
0.0
 40
0.15
  1
1/4"
 50
270.0
  0
CIRCLE
  5
104
  8
0
 10
11.472472
 20
15.0625
 30
0.0
 40
0.125
  0
LINE
  5
105
  8
0
 10
11.676074
 20
15.0625
 30
0.0
 11
11.26887
 21
15.0625
 31
0.0
  0
LINE
  5
106
  8
0
 10
11.472472
 20
15.266102
 30
0.0
 11
11.472472
 21
14.858898
 31
0.0
  0
POLYLINE
  5
107
  8
0
 66
     1
 10
0.0
 20
0.0
 30
0.0
 70
     1
  0
VERTEX
  5
865
  8
0
 10
11.52942
 20
13.805
 30
0.0
  0
VERTEX
  5
866
  8
0
 10
11.52942
 20
13.445
 30
0.0
  0
VERTEX
  5
867
  8
0
 10
11.63942
 20
13.445
 30
0.0
  0
VERTEX
  5
868
  8
0
 10
11.63942
 20
13.805
 30
0.0
  0
SEQEND
  5
869
  8
0
  0
TEXT
  5
108
  8
0
 10
11.033571
 20
12.283187
 30
0.0
 40
0.15
  1
#29
 50
270.0
  0
TEXT
  5
109
  8
0
 10
10.637491
 20
10.211319
 30
0.0
 40
0.15
  1
#7
 50
270.0
  0
LINE
  5
10A
  8
0
 10
11.154927
 20
9.925759
 30
0.0
 11
10.779927
 21
9.925759
 31
0.0
  0
CIRCLE
  5
10B
  8
0
 10
10.967427
 20
9.925759
 30
0.0
 40
0.1005
  0
LINE
  5
10C
  8
0
 10
10.967427
 20
9.738259
 30
0.0
 11
10.967427
 21
10.113259
 31
0.0
  0
TEXT
  5
10D
  8
0
 10
11.786683
 20
11.29316
 30
0.0
 40
0.1875
  1
RECEIVER
 50
270.0
1001
ACAD
1000
MTEXTBEGIN
1070
    73
1070
     1
1070
    44
1040
1.0
1070
    74
1070
     0
1000
MTEXTEND
  0
TEXT
  5
69A
  8
0
 10
11.474183
 20
11.19941
 30
0.0
 40
0.1875
  1
BRACKET
 50
270.0
1001
ACAD
1000
R13OBJECT
1002
{
1005
10D
1002
}
  0
TEXT
  5
10E
  8
0
 10
10.396512
 20
5.717769
 30
0.0
 40
0.1875
  1
MAIN
1001
ACAD
1000
MTEXTBEGIN
1070
    73
1070
     1
1070
    44
1040
1.0
1070
    74
1070
     0
1000
MTEXTEND
  0
TEXT
  5
69B
  8
0
 10
10.240262
 20
5.405269
 30
0.0
 40
0.1875
  1
POWER
1001
ACAD
1000
R13OBJECT
1002
{
1005
10E
1002
}
  0
TEXT
  5
69C
  8
0
 10
10.177762
 20
5.092769
 30
0.0
 40
0.1875
  1
SWITCH
1001
ACAD
1000
R13OBJECT
1002
{
1005
10E
1002
}
  0
CIRCLE
  5
10F
  8
0
 10
10.703976
 20
4.620623
 30
0.0
 40
0.4
  0
LINE
  5
110
  8
0
 10
11.866476
 20
5.970623
 30
0.0
 11
9.541476
 21
5.970623
 31
0.0
  0
LINE
  5
111
  8
0
 10
9.777484
 20
3.526873
 30
0.0
 11
9.444768
 21
3.526873
 31
0.0
  0
LINE
  5
112
  8
0
 10
9.777484
 20
5.714373
 30
0.0
 11
9.444768
 21
5.714373
 31
0.0
  0
CIRCLE
  5
113
  8
0
 10
9.611126
 20
5.714373
 30
0.0
 40
0.076
  0
TEXT
  5
114
  8
0
 10
9.421111
 20
5.405699
 30
0.0
 40
0.15
  1
#24
 50
270.0
  0
ARC
  5
115
  8
0
 10
9.541476
 20
5.783123
 30
0.0
 40
0.1875
 50
90.0
 51
180.0
  0
LINE
  5
116
  8
0
 10
9.611126
 20
5.880731
 30
0.0
 11
9.611126
 21
5.548015
 31
0.0
  0
LINE
  5
117
  8
0
 10
8.961967
 20
5.16402
 30
0.0
 11
8.961967
 21
5.02902
 31
0.0
  0
TEXT
  5
118
  8
0
 10
9.421111
 20
4.172626
 30
0.0
 40
0.15
  1
#24
 50
270.0
  0
CIRCLE
  5
119
  8
0
 10
10.967427
 20
6.425759
 30
0.0
 40
0.1005
  0
LINE
  5
11A
  8
0
 10
10.967427
 20
6.238259
 30
0.0
 11
10.967427
 21
6.613259
 31
0.0
  0
TEXT
  5
11B
  8
0
 10
11.195994
 20
7.541249
 30
0.0
 40
0.15
  1
#7
 50
270.0
  0
CIRCLE
  5
11C
  8
0
 10
11.142427
 20
7.675759
 30
0.0
 40
0.1005
  0
LINE
  5
11D
  8
0
 10
10.954927
 20
7.675759
 30
0.0
 11
11.329927
 21
7.675759
 31
0.0
  0
CIRCLE
  5
11E
  8
0
 10
11.142427
 20
8.675759
 30
0.0
 40
0.1005
  0
LINE
  5
11F
  8
0
 10
10.954927
 20
8.675759
 30
0.0
 11
11.329927
 21
8.675759
 31
0.0
  0
POLYLINE
  5
120
  8
0
 66
     1
 10
0.0
 20
0.0
 30
0.0
 70
     1
  0
VERTEX
  5
86A
  8
0
 10
11.454927
 20
7.175759
 30
0.0
  0
VERTEX
  5
86B
  8
0
 10
10.704927
 20
7.175759
 30
0.0
  0
VERTEX
  5
86C
  8
0
 10
10.704927
 20
9.175759
 30
0.0
  0
VERTEX
  5
86D
  8
0
 10
11.454927
 20
9.175759
 30
0.0
  0
SEQEND
  5
86E
  8
0
  0
LINE
  5
121
  8
0
 10
10.829927
 20
7.175759
 30
0.0
 11
10.829927
 21
9.175759
 31
0.0
  0
LINE
  5
122
  8
0
 10
11.142427
 20
8.863259
 30
0.0
 11
11.142427
 21
8.488259
 31
0.0
  0
LINE
  5
123
  8
0
 10
11.142427
 20
7.863259
 30
0.0
 11
11.142427
 21
7.488259
 31
0.0
  0
TEXT
  5
124
  8
0
 10
11.46563
 20
8.918471
 30
0.0
 40
0.1875
  1
RECEIVER
 50
270.0
1001
ACAD
1000
MTEXTBEGIN
1070
    73
1070
     1
1070
    44
1040
1.0
1070
    74
1070
     0
1000
MTEXTEND
  0
TEXT
  5
125
  8
0
 10
11.227022
 20
8.565811
 30
0.0
 40
0.15
  1
#7
 50
270.0
  0
TEXT
  5
126
  8
0
 10
10.653005
 20
6.423545
 30
0.0
 40
0.15
  1
#7
 50
270.0
  0
LINE
  5
127
  8
0
 10
11.154927
 20
6.425759
 30
0.0
 11
10.779927
 21
6.425759
 31
0.0
  0
CIRCLE
  5
128
  8
0
 10
11.796826
 20
5.714373
 30
0.0
 40
0.076
  0
LINE
  5
129
  8
0
 10
11.963184
 20
5.714373
 30
0.0
 11
11.630468
 21
5.714373
 31
0.0
  0
TEXT
  5
12A
  8
0
 10
11.636915
 20
5.405699
 30
0.0
 40
0.15
  1
#24
 50
270.0
  0
LINE
  5
12B
  8
0
 10
11.796826
 20
5.880731
 30
0.0
 11
11.796826
 21
5.548015
 31
0.0
  0
LINE
  5
12C
  8
0
 10
11.963184
 20
3.526873
 30
0.0
 11
11.630468
 21
3.526873
 31
0.0
  0
TEXT
  5
12D
  8
0
 10
11.636915
 20
4.172626
 30
0.0
 40
0.15
  1
#24
 50
270.0
  0
TEXT
  5
12E
  8
0
 10
7.994381
 20
1.899593
 30
0.0
 40
0.25
  1
MOTOR
1001
ACAD
1000
MTEXTBEGIN
1070
    73
1070
     1
1070
    44
1040
1.0
1070
    74
1070
     0
1000
MTEXTEND
  0
POLYLINE
  5
12F
  8
0
 66
     1
 10
0.0
 20
0.0
 30
0.0
  0
VERTEX
  5
86F
  8
0
 10
10.487472
 20
2.91
 30
0.0
  0
VERTEX
  5
870
  8
0
 10
6.640524
 20
2.91
 30
0.0
  0
VERTEX
  5
871
  8
0
 10
6.640524
 20
1.09
 30
0.0
  0
VERTEX
  5
872
  8
0
 10
10.487472
 20
1.09
 30
0.0
  0
SEQEND
  5
873
  8
0
  0
LINE
  5
130
  8
0
 10
9.176074
 20
0.5625
 30
0.0
 11
8.76887
 21
0.5625
 31
0.0
  0
CIRCLE
  5
131
  8
0
 10
8.972472
 20
0.5625
 30
0.0
 40
0.125
  0
CIRCLE
  5
132
  8
0
 10
8.972472
 20
0.5625
 30
0.0
 40
0.125
  0
TEXT
  5
133
  8
0
 10
7.319906
 20
0.429531
 30
0.0
 40
0.25
  1
BACK
1001
ACAD
1000
MTEXTBEGIN
1070
    73
1070
     1
1070
    44
1040
1.0
1070
    74
1070
     0
1000
MTEXTEND
  0
TEXT
  5
134
  8
0
 10
6.728726
 20
0.787586
 30
0.0
 40
0.15
  1
1/4"
 50
270.0
  0
LINE
  5
135
  8
0
 10
6.472472
 20
0.358898
 30
0.0
 11
6.472472
 21
0.766102
 31
0.0
  0
CIRCLE
  5
136
  8
0
 10
6.472472
 20
0.5625
 30
0.0
 40
0.125
  0
POLYLINE
  5
137
  8
0
 66
     1
 10
0.0
 20
0.0
 30
0.0
 70
     1
  0
VERTEX
  5
874
  8
0
 10
6.415524
 20
1.82
 30
0.0
  0
VERTEX
  5
875
  8
0
 10
6.415524
 20
2.18
 30
0.0
  0
VERTEX
  5
876
  8
0
 10
6.305524
 20
2.18
 30
0.0
  0
VERTEX
  5
877
  8
0
 10
6.305524
 20
1.82
 30
0.0
  0
SEQEND
  5
878
  8
0
  0
POLYLINE
  5
138
  8
0
 66
     1
 10
0.0
 20
0.0
 30
0.0
 70
     1
  0
VERTEX
  5
879
  8
0
 10
6.640524
 20
1.65
 30
0.0
  0
VERTEX
  5
87A
  8
0
 10
6.640524
 20
2.35
 30
0.0
  0
VERTEX
  5
87B
  8
0
 10
6.415524
 20
2.35
 30
0.0
  0
VERTEX
  5
87C
  8
0
 10
6.415524
 20
1.65
 30
0.0
  0
SEQEND
  5
87D
  8
0
  0
CIRCLE
  5
139
  8
0
 10
6.511967
 20
3.14652
 30
0.0
 40
0.0675
  0
LINE
  5
13A
  8
0
 10
6.579467
 20
3.14652
 30
0.0
 11
6.444467
 21
3.14652
 31
0.0
  0
LINE
  5
13B
  8
0
 10
6.511967
 20
3.21402
 30
0.0
 11
6.511967
 21
3.07902
 31
0.0
  0
LINE
  5
13C
  8
0
 10
6.676074
 20
0.5625
 30
0.0
 11
6.26887
 21
0.5625
 31
0.0
  0
LINE
  5
13D
  8
0
 10
9.541476
 20
3.270623
 30
0.0
 11
11.866476
 21
3.270623
 31
0.0
  0
TEXT
  5
13E
  8
0
 10
9.242776
 20
0.787586
 30
0.0
 40
0.15
  1
1/4"
 50
270.0
  0
LINE
  5
13F
  8
0
 10
8.972472
 20
0.358898
 30
0.0
 11
8.972472
 21
0.766102
 31
0.0
  0
ARC
  5
140
  8
0
 10
9.541476
 20
3.458123
 30
0.0
 40
0.1875
 50
180.0
 51
270.0
  0
TEXT
  5
141
  8
0
 10
11.725788
 20
0.787586
 30
0.0
 40
0.15
  1
1/4"
 50
270.0
  0
CIRCLE
  5
142
  8
0
 10
11.472472
 20
0.5625
 30
0.0
 40
0.125
  0
LINE
  5
143
  8
0
 10
11.472472
 20
0.358898
 30
0.0
 11
11.472472
 21
0.766102
 31
0.0
  0
POLYLINE
  5
144
  8
0
 66
     1
 10
0.0
 20
0.0
 30
0.0
 70
     1
  0
VERTEX
  5
87E
  8
0
 10
11.487472
 20
0.85
 30
0.0
  0
VERTEX
  5
87F
  8
0
 10
11.487472
 20
3.15
 30
0.0
  0
VERTEX
  5
880
  8
0
 10
10.487472
 20
3.15
 30
0.0
  0
VERTEX
  5
881
  8
0
 10
10.487472
 20
0.85
 30
0.0
  0
SEQEND
  5
882
  8
0
  0
TEXT
  5
145
  8
0
 10
10.53609
 20
2.786271
 30
0.0
 40
0.15
  1
#10
 50
270.0
  0
LINE
  5
146
  8
0
 10
10.612472
 20
2.875
 30
0.0
 11
10.612472
 21
3.125
 31
0.0
  0
LINE
  5
147
  8
0
 10
10.487472
 20
3.0
 30
0.0
 11
10.737472
 21
3.0
 31
0.0
  0
CIRCLE
  5
148
  8
0
 10
10.612472
 20
3.0
 30
0.0
 40
0.09675
  0
TEXT
  5
149
  8
0
 10
10.53609
 20
1.533861
 30
0.0
 40
0.15
  1
#10
 50
270.0
  0
LINE
  5
14A
  8
0
 10
10.487472
 20
1.0
 30
0.0
 11
10.737472
 21
1.0
 31
0.0
  0
CIRCLE
  5
14B
  8
0
 10
10.612472
 20
1.0
 30
0.0
 40
0.09675
  0
LINE
  5
14C
  8
0
 10
10.612472
 20
0.875
 30
0.0
 11
10.612472
 21
1.125
 31
0.0
  0
TEXT
  5
14D
  8
0
 10
11.260839
 20
2.786271
 30
0.0
 40
0.15
  1
#10
 50
270.0
  0
LINE
  5
14E
  8
0
 10
11.237472
 20
3.0
 30
0.0
 11
11.487472
 21
3.0
 31
0.0
  0
CIRCLE
  5
14F
  8
0
 10
11.362472
 20
3.0
 30
0.0
 40
0.09675
  0
LINE
  5
150
  8
0
 10
11.362472
 20
2.875
 30
0.0
 11
11.362472
 21
3.125
 31
0.0
  0
TEXT
  5
151
  8
0
 10
11.260839
 20
1.533861
 30
0.0
 40
0.15
  1
#10
 50
270.0
  0
LINE
  5
152
  8
0
 10
11.237472
 20
1.0
 30
0.0
 11
11.487472
 21
1.0
 31
0.0
  0
CIRCLE
  5
153
  8
0
 10
11.362472
 20
1.0
 30
0.0
 40
0.09675
  0
LINE
  5
154
  8
0
 10
11.362472
 20
0.875
 30
0.0
 11
11.362472
 21
1.125
 31
0.0
  0
LINE
  5
155
  8
0
 10
11.676074
 20
0.5625
 30
0.0
 11
11.26887
 21
0.5625
 31
0.0
  0
POLYLINE
  5
156
  8
0
 66
     1
 10
0.0
 20
0.0
 30
0.0
 70
     1
  0
VERTEX
  5
883
  8
0
 10
17.944944
 20
15.625
 30
0.0
  0
VERTEX
  5
884
  8
0
 10
17.944944
 20
11.625
 30
0.0
  0
VERTEX
  5
885
  8
0
 10
16.694944
 20
11.625
 30
0.0
  0
VERTEX
  5
886
  8
0
 10
16.694944
 20
15.625
 30
0.0
  0
SEQEND
  5
887
  8
0
  0
LINE
  5
157
  8
0
 10
12.053976
 20
3.458123
 30
0.0
 11
12.053976
 21
5.783123
 31
0.0
  0
POLYLINE
  5
158
  8
0
 66
     1
 10
0.0
 20
0.0
 30
0.0
 70
     1
  0
VERTEX
  5
888
  8
0
 10
13.889972
 20
3.5
 30
0.0
  0
VERTEX
  5
889
  8
0
 10
13.889972
 20
4.5
 30
0.0
  0
VERTEX
  5
88A
  8
0
 10
12.139972
 20
4.5
 30
0.0
  0
VERTEX
  5
88B
  8
0
 10
12.139972
 20
3.5
 30
0.0
  0
SEQEND
  5
88C
  8
0
  0
POLYLINE
  5
159
  8
0
 66
     1
 10
0.0
 20
0.0
 30
0.0
 70
     1
  0
VERTEX
  5
88D
  8
0
 10
17.944944
 20
4.0
 30
0.0
  0
VERTEX
  5
88E
  8
0
 10
17.944944
 20
0.0
 30
0.0
  0
VERTEX
  5
88F
  8
0
 10
16.694944
 20
0.0
 30
0.0
  0
VERTEX
  5
890
  8
0
 10
16.694944
 20
4.0
 30
0.0
  0
SEQEND
  5
891
  8
0
  0
POLYLINE
  5
15A
  8
0
 66
     1
 10
0.0
 20
0.0
 30
0.0
 70
     1
  0
VERTEX
  5
892
  8
0
 10
15.472472
 20
14.8125
 30
0.0
  0
VERTEX
  5
893
  8
0
 10
15.472472
 20
0.8125
 30
0.0
  0
VERTEX
  5
894
  8
0
 10
15.972472
 20
0.8125
 30
0.0
  0
VERTEX
  5
895
  8
0
 10
15.972472
 20
14.8125
 30
0.0
  0
SEQEND
  5
896
  8
0
  0
POLYLINE
  5
15B
  8
0
 66
     1
 10
0.0
 20
0.0
 30
0.0
 70
     1
  0
VERTEX
  5
897
  8
0
 10
13.257472
 20
1.035
 30
0.0
  0
VERTEX
  5
898
  8
0
 10
13.257472
 20
14.59
 30
0.0
  0
VERTEX
  5
899
  8
0
 10
12.772472
 20
14.59
 30
0.0
  0
VERTEX
  5
89A
  8
0
 10
12.772472
 20
1.035
 30
0.0
  0
SEQEND
  5
89B
  8
0
  0
POLYLINE
  5
15C
  8
0
 66
     1
 10
0.0
 20
0.0
 30
0.0
 70
     1
  0
VERTEX
  5
89C
  8
0
 10
13.472472
 20
14.625
 30
0.0
  0
VERTEX
  5
89D
  8
0
 10
13.472472
 20
12.625
 30
0.0
  0
VERTEX
  5
89E
  8
0
 10
15.472472
 20
12.625
 30
0.0
  0
VERTEX
  5
89F
  8
0
 10
15.472472
 20
14.625
 30
0.0
  0
SEQEND
  5
8A0
  8
0
  0
POLYLINE
  5
15D
  8
0
 66
     1
 10
0.0
 20
0.0
 30
0.0
 70
     1
  0
VERTEX
  5
8A1
  8
0
 10
14.972472
 20
14.625
 30
0.0
  0
VERTEX
  5
8A2
  8
0
 10
14.972472
 20
12.625
 30
0.0
  0
VERTEX
  5
8A3
  8
0
 10
15.472472
 20
12.625
 30
0.0
  0
VERTEX
  5
8A4
  8
0
 10
15.472472
 20
14.625
 30
0.0
  0
SEQEND
  5
8A5
  8
0
  0
TEXT
  5
15E
  8
0
 10
14.350987
 20
10.702631
 30
0.0
 40
0.1875
  1
TENSIONER
 50
270.0
1001
ACAD
1000
MTEXTBEGIN
1070
    73
1070
     1
1070
    44
1040
1.0
1070
    74
1070
     0
1000
MTEXTEND
  0
TEXT
  5
6D9
  8
0
 10
14.038487
 20
10.358881
 30
0.0
 40
0.1875
  1
BLOCK
 50
270.0
1001
ACAD
1000
R13OBJECT
1002
{
1005
15E
1002
}
  0
INSERT
  5
15F
  8
0
  2
_OPEN30
 10
-13.538649
 20
10.999643
 30
0.0
 41
0.18
 42
0.18
 43
0.18
 50
90.0
210
0.0
220
0.0
230
-1.0
1001
ACAD
1000
DSTYLE
1002
{
1070
     5
1000
OPEN30
1070
    77
1070
     0
1070
   147
1040
0.09
1070
   341
1005
6433700400000022
1002
}
  0
POLYLINE
  5
6DA
  8
0
 66
     1
 10
0.0
 20
0.0
 30
0.0
 70
   128
210
0.0
220
0.0
230
-1.0
1001
ACAD
1000
R13OBJECT
1002
{
1005
15F
1002
}
  0
VERTEX
  5
923
  8
0
 10
-13.538649
 20
10.819643
 30
0.0
  0
VERTEX
  5
924
  8
0
 10
-13.538649
 20
10.455021
 30
0.0
  0
VERTEX
  5
925
  8
0
 10
-13.907419
 20
10.050947
 30
0.0
  0
SEQEND
  5
926
  8
0
  0
CIRCLE
  5
160
  8
0
 10
13.514972
 20
11.625
 30
0.0
 40
0.1875
  0
POLYLINE
  5
161
  8
0
 66
     1
 10
0.0
 20
0.0
 30
0.0
 70
     1
  0
VERTEX
  5
8A6
  8
0
 10
13.889972
 20
12.125
 30
0.0
  0
VERTEX
  5
8A7
  8
0
 10
13.889972
 20
11.125
 30
0.0
  0
VERTEX
  5
8A8
  8
0
 10
12.139972
 20
11.125
 30
0.0
  0
VERTEX
  5
8A9
  8
0
 10
12.139972
 20
12.125
 30
0.0
  0
SEQEND
  5
8AA
  8
0
  0
LINE
  5
162
  8
0
 10
13.702472
 20
11.625
 30
0.0
 11
13.327472
 21
11.625
 31
0.0
  0
CIRCLE
  5
163
  8
0
 10
13.514972
 20
11.625
 30
0.0
 40
0.1005
  0
POLYLINE
  5
164
  8
0
 66
     1
 10
0.0
 20
0.0
 30
0.0
 70
     1
  0
VERTEX
  5
8AB
  8
0
 10
13.472472
 20
14.625
 30
0.0
  0
VERTEX
  5
8AC
  8
0
 10
13.472472
 20
12.625
 30
0.0
  0
VERTEX
  5
8AD
  8
0
 10
13.972472
 20
12.625
 30
0.0
  0
VERTEX
  5
8AE
  8
0
 10
13.972472
 20
14.625
 30
0.0
  0
SEQEND
  5
8AF
  8
0
  0
POLYLINE
  5
165
  8
0
 66
     1
 10
0.0
 20
0.0
 30
0.0
 70
     1
  0
VERTEX
  5
8B0
  8
0
 10
12.347472
 20
13.375
 30
0.0
  0
VERTEX
  5
8B1
  8
0
 10
12.347472
 20
13.875
 30
0.0
  0
VERTEX
  5
8B2
  8
0
 10
13.097472
 20
13.875
 30
0.0
  0
VERTEX
  5
8B3
  8
0
 10
13.097472
 20
13.375
 30
0.0
  0
SEQEND
  5
8B4
  8
0
  0
POLYLINE
  5
166
  8
0
 66
     1
 10
0.0
 20
0.0
 30
0.0
 70
     1
  0
VERTEX
  5
8B5
  8
0
 10
12.347472
 20
14.1075
 30
0.0
  0
VERTEX
  5
8B6
  8
0
 10
12.347472
 20
13.1425
 30
0.0
  0
VERTEX
  5
8B7
  8
0
 10
12.767472
 20
13.1425
 30
0.0
  0
VERTEX
  5
8B8
  8
0
 10
12.767472
 20
13.235
 30
0.0
  0
VERTEX
  5
8B9
  8
0
 10
12.932472
 20
13.235
 30
0.0
  0
VERTEX
  5
8BA
  8
0
 10
12.932472
 20
12.945
 30
0.0
  0
VERTEX
  5
8BB
  8
0
 10
13.097472
 20
12.945
 30
0.0
  0
VERTEX
  5
8BC
  8
0
 10
13.097472
 20
14.305
 30
0.0
  0
VERTEX
  5
8BD
  8
0
 10
12.932472
 20
14.305
 30
0.0
  0
VERTEX
  5
8BE
  8
0
 10
12.932472
 20
14.015
 30
0.0
  0
VERTEX
  5
8BF
  8
0
 10
12.767472
 20
14.015
 30
0.0
  0
VERTEX
  5
8C0
  8
0
 10
12.767472
 20
14.1075
 30
0.0
  0
SEQEND
  5
8C1
  8
0
  0
POLYLINE
  5
167
  8
0
 66
     1
 10
0.0
 20
0.0
 30
0.0
 70
     1
  0
VERTEX
  5
8C2
  8
0
 10
13.472472
 20
14.0
 30
0.0
  0
VERTEX
  5
8C3
  8
0
 10
13.472472
 20
13.25
 30
0.0
  0
VERTEX
  5
8C4
  8
0
 10
13.097472
 20
13.25
 30
0.0
  0
VERTEX
  5
8C5
  8
0
 10
13.097472
 20
14.0
 30
0.0
  0
SEQEND
  5
8C6
  8
0
  0
CIRCLE
  5
168
  8
0
 10
12.514972
 20
11.625
 30
0.0
 40
0.1875
  0
LINE
  5
169
  8
0
 10
12.702472
 20
11.625
 30
0.0
 11
12.327472
 21
11.625
 31
0.0
  0
CIRCLE
  5
16A
  8
0
 10
12.514972
 20
11.625
 30
0.0
 40
0.1005
  0
LINE
  5
16B
  8
0
 10
12.514972
 20
11.4375
 30
0.0
 11
12.514972
 21
11.8125
 31
0.0
  0
TEXT
  5
16C
  8
0
 10
12.181261
 20
12.043111
 30
0.0
 40
0.15
  1
#7
 50
270.0
  0
TEXT
  5
16D
  8
0
 10
12.936587
 20
10.70274
 30
0.0
 40
0.1875
  1
CHAIN
 50
270.0
1001
ACAD
1000
MTEXTBEGIN
1070
    73
1070
     1
1070
    44
1040
1.0
1070
    74
1070
     0
1000
MTEXTEND
  0
TEXT
  5
16E
  8
0
 10
14.231621
 20
15.287586
 30
0.0
 40
0.15
  1
1/4"
 50
270.0
  0
LINE
  5
16F
  8
0
 10
14.252174
 20
13.0
 30
0.0
 11
14.692769
 21
13.0
 31
0.0
  0
LINE
  5
170
  8
0
 10
14.252174
 20
14.25
 30
0.0
 11
14.692769
 21
14.25
 31
0.0
  0
TEXT
  5
171
  8
0
 10
13.634057
 20
14.044289
 30
0.0
 40
0.1875
  1
BLOCK
 50
270.0
1001
ACAD
1000
MTEXTBEGIN
1070
    73
1070
     1
1070
    44
1040
1.0
1070
    74
1070
     0
1000
MTEXTEND
  0
CIRCLE
  5
172
  8
0
 10
13.972472
 20
15.0625
 30
0.0
 40
0.125
  0
LINE
  5
173
  8
0
 10
14.176074
 20
15.0625
 30
0.0
 11
13.76887
 21
15.0625
 31
0.0
  0
LINE
  5
174
  8
0
 10
13.972472
 20
15.266102
 30
0.0
 11
13.972472
 21
14.858898
 31
0.0
  0
TEXT
  5
175
  8
0
 10
14.076432
 20
13.533327
 30
0.0
 40
0.15
  1
1/4"
 50
270.0
  0
TEXT
  5
176
  8
0
 10
14.588554
 20
14.107881
 30
0.0
 40
0.15
  1
1/4"
 50
270.0
  0
CIRCLE
  5
177
  8
0
 10
14.472472
 20
14.25
 30
0.0
 40
0.125
  0
LINE
  5
178
  8
0
 10
14.472472
 20
14.029702
 30
0.0
 11
14.472472
 21
14.470298
 31
0.0
  0
CIRCLE
  5
179
  8
0
 10
14.472472
 20
13.0
 30
0.0
 40
0.125
  0
LINE
  5
17A
  8
0
 10
14.472472
 20
12.779702
 30
0.0
 11
14.472472
 21
13.220298
 31
0.0
  0
LINE
  5
17B
  8
0
 10
13.514972
 20
11.4375
 30
0.0
 11
13.514972
 21
11.8125
 31
0.0
  0
TEXT
  5
17C
  8
0
 10
13.633903
 20
12.043111
 30
0.0
 40
0.15
  1
#7
 50
270.0
  0
INSERT
  5
17D
  8
0
  2
_OPEN30
 10
13.538649
 20
4.657437
 30
0.0
 41
0.18
 42
0.18
 43
0.18
 50
270.0
1001
ACAD
1000
DSTYLE
1002
{
1070
     5
1000
OPEN30
1070
    77
1070
     0
1070
   147
1040
0.09
1070
   341
1005
4033700400000022
1002
}
  0
POLYLINE
  5
700
  8
0
 66
     1
 10
0.0
 20
0.0
 30
0.0
 70
   128
1001
ACAD
1000
R13OBJECT
1002
{
1005
17D
1002
}
  0
VERTEX
  5
927
  8
0
 10
13.538649
 20
4.837437
 30
0.0
  0
VERTEX
  5
928
  8
0
 10
13.538649
 20
5.202058
 30
0.0
  0
VERTEX
  5
929
  8
0
 10
13.907419
 20
5.606132
 30
0.0
  0
SEQEND
  5
92A
  8
0
  0
CIRCLE
  5
17E
  8
0
 10
13.514972
 20
4.0
 30
0.0
 40
0.1875
  0
LINE
  5
17F
  8
0
 10
13.702472
 20
4.0
 30
0.0
 11
13.327472
 21
4.0
 31
0.0
  0
CIRCLE
  5
180
  8
0
 10
13.514972
 20
4.0
 30
0.0
 40
0.1005
  0
LINE
  5
181
  8
0
 10
12.344927
 20
7.175759
 30
0.0
 11
12.344927
 21
9.175759
 31
0.0
  0
TEXT
  5
182
  8
0
 10
12.064777
 20
8.519239
 30
0.0
 40
0.15
  1
#7
 50
270.0
  0
LINE
  5
183
  8
0
 10
12.032427
 20
8.863259
 30
0.0
 11
12.032427
 21
8.488259
 31
0.0
  0
TEXT
  5
184
  8
0
 10
12.064777
 20
7.479154
 30
0.0
 40
0.15
  1
#7
 50
270.0
  0
LINE
  5
185
  8
0
 10
12.032427
 20
7.863259
 30
0.0
 11
12.032427
 21
7.488259
 31
0.0
  0
CIRCLE
  5
186
  8
0
 10
12.514972
 20
4.0
 30
0.0
 40
0.1875
  0
LINE
  5
187
  8
0
 10
12.702472
 20
4.0
 30
0.0
 11
12.327472
 21
4.0
 31
0.0
  0
CIRCLE
  5
188
  8
0
 10
12.514972
 20
4.0
 30
0.0
 40
0.1005
  0
LINE
  5
189
  8
0
 10
12.514972
 20
3.8125
 30
0.0
 11
12.514972
 21
4.1875
 31
0.0
  0
TEXT
  5
18A
  8
0
 10
12.181261
 20
4.418111
 30
0.0
 40
0.15
  1
#7
 50
270.0
  0
TEXT
  5
18B
  8
0
 10
14.350987
 20
6.503775
 30
0.0
 40
0.1875
  1
TENSIONER
 50
270.0
1001
ACAD
1000
MTEXTBEGIN
1070
    73
1070
     1
1070
    44
1040
1.0
1070
    74
1070
     0
1000
MTEXTEND
  0
TEXT
  5
705
  8
0
 10
14.038487
 20
6.160025
 30
0.0
 40
0.1875
  1
BLOCK
 50
270.0
1001
ACAD
1000
R13OBJECT
1002
{
1005
18B
1002
}
  0
LINE
  5
18C
  8
0
 10
13.514972
 20
3.8125
 30
0.0
 11
13.514972
 21
4.1875
 31
0.0
  0
TEXT
  5
18D
  8
0
 10
13.633903
 20
4.418111
 30
0.0
 40
0.15
  1
#7
 50
270.0
  0
TEXT
  5
18E
  8
0
 10
15.581547
 20
9.692627
 30
0.0
 40
0.25
  1
RIGHT
 50
270.0
1001
ACAD
1000
MTEXTBEGIN
1070
    73
1070
     1
1070
    44
1040
1.0
1070
    74
1070
     0
1000
MTEXTEND
  0
POLYLINE
  5
18F
  8
0
 66
     1
 10
0.0
 20
0.0
 30
0.0
 70
     1
  0
VERTEX
  5
8C7
  8
0
 10
16.159972
 20
13.875
 30
0.0
  0
VERTEX
  5
8C8
  8
0
 10
17.944944
 20
13.875
 30
0.0
  0
VERTEX
  5
8C9
  8
0
 10
17.944944
 20
13.375
 30
0.0
  0
VERTEX
  5
8CA
  8
0
 10
16.159972
 20
13.375
 30
0.0
  0
SEQEND
  5
8CB
  8
0
  0
POLYLINE
  5
190
  8
0
 66
     1
 10
0.0
 20
0.0
 30
0.0
 70
     1
  0
VERTEX
  5
8CC
  8
0
 10
16.368016
 20
14.561627
 30
0.0
  0
VERTEX
  5
8CD
  8
0
 10
16.368016
 20
12.688373
 30
0.0
  0
VERTEX
  5
8CE
  8
0
 10
16.694944
 20
12.688373
 30
0.0
  0
VERTEX
  5
8CF
  8
0
 10
16.694944
 20
14.561627
 30
0.0
  0
SEQEND
  5
8D0
  8
0
  0
TEXT
  5
191
  8
0
 10
15.659353
 20
13.564384
 30
0.0
 40
0.15
  1
1/4"
 50
270.0
  0
CIRCLE
  5
192
  8
0
 10
15.722472
 20
12.8125
 30
0.0
 40
0.125
  0
LINE
  5
193
  8
0
 10
15.51887
 20
12.8125
 30
0.0
 11
15.926074
 21
12.8125
 31
0.0
  0
TEXT
  5
194
  8
0
 10
15.099618
 20
14.191029
 30
0.0
 40
0.1875
  1
BEARING
 50
270.0
1001
ACAD
1000
MTEXTBEGIN
1070
    73
1070
     1
1070
    44
1040
1.0
1070
    74
1070
     0
1000
MTEXTEND
  0
LINE
  5
195
  8
0
 10
15.722472
 20
13.016102
 30
0.0
 11
15.722472
 21
12.608898
 31
0.0
  0
POLYLINE
  5
196
  8
0
 66
     1
 10
0.0
 20
0.0
 30
0.0
 70
     1
  0
VERTEX
  5
8D1
  8
0
 10
16.159972
 20
14.145348
 30
0.0
  0
VERTEX
  5
8D2
  8
0
 10
16.159972
 20
13.104652
 30
0.0
  0
VERTEX
  5
8D3
  8
0
 10
16.368016
 20
13.104652
 30
0.0
  0
VERTEX
  5
8D4
  8
0
 10
16.368016
 20
14.145348
 30
0.0
  0
SEQEND
  5
8D5
  8
0
  0
TEXT
  5
197
  8
0
 10
15.659353
 20
11.033237
 30
0.0
 40
0.15
  1
1/4"
 50
270.0
  0
CIRCLE
  5
198
  8
0
 10
15.722472
 20
10.3125
 30
0.0
 40
0.125
  0
LINE
  5
199
  8
0
 10
15.51887
 20
10.3125
 30
0.0
 11
15.926074
 21
10.3125
 31
0.0
  0
LINE
  5
19A
  8
0
 10
15.722472
 20
10.516102
 30
0.0
 11
15.722472
 21
10.108898
 31
0.0
  0
TEXT
  5
19B
  8
0
 10
15.659353
 20
8.455505
 30
0.0
 40
0.15
  1
1/4"
 50
270.0
  0
CIRCLE
  5
19C
  8
0
 10
15.722472
 20
7.8125
 30
0.0
 40
0.125
  0
CIRCLE
  5
19D
  8
0
 10
15.722472
 20
7.8125
 30
0.0
 40
0.125
  0
LINE
  5
19E
  8
0
 10
15.51887
 20
7.8125
 30
0.0
 11
15.926074
 21
7.8125
 31
0.0
  0
LINE
  5
19F
  8
0
 10
15.722472
 20
8.016102
 30
0.0
 11
15.722472
 21
7.608898
 31
0.0
  0
TEXT
  5
1A0
  8
0
 10
15.659353
 20
5.986473
 30
0.0
 40
0.15
  1
1/4"
 50
270.0
  0
LINE
  5
1A1
  8
0
 10
15.51887
 20
5.3125
 30
0.0
 11
15.926074
 21
5.3125
 31
0.0
  0
CIRCLE
  5
1A2
  8
0
 10
15.722472
 20
5.3125
 30
0.0
 40
0.125
  0
LINE
  5
1A3
  8
0
 10
15.722472
 20
5.516102
 30
0.0
 11
15.722472
 21
5.108898
 31
0.0
  0
POLYLINE
  5
1A4
  8
0
 66
     1
 10
0.0
 20
0.0
 30
0.0
 70
     1
  0
VERTEX
  5
8D6
  8
0
 10
13.472472
 20
3.0
 30
0.0
  0
VERTEX
  5
8D7
  8
0
 10
13.472472
 20
1.0
 30
0.0
  0
VERTEX
  5
8D8
  8
0
 10
15.472472
 20
1.0
 30
0.0
  0
VERTEX
  5
8D9
  8
0
 10
15.472472
 20
3.0
 30
0.0
  0
SEQEND
  5
8DA
  8
0
  0
POLYLINE
  5
1A5
  8
0
 66
     1
 10
0.0
 20
0.0
 30
0.0
 70
     1
  0
VERTEX
  5
8DB
  8
0
 10
14.972472
 20
3.0
 30
0.0
  0
VERTEX
  5
8DC
  8
0
 10
14.972472
 20
1.0
 30
0.0
  0
VERTEX
  5
8DD
  8
0
 10
15.472472
 20
1.0
 30
0.0
  0
VERTEX
  5
8DE
  8
0
 10
15.472472
 20
3.0
 30
0.0
  0
SEQEND
  5
8DF
  8
0
  0
POLYLINE
  5
1A6
  8
0
 66
     1
 10
0.0
 20
0.0
 30
0.0
 70
     1
  0
VERTEX
  5
8E0
  8
0
 10
13.472472
 20
3.0
 30
0.0
  0
VERTEX
  5
8E1
  8
0
 10
13.472472
 20
1.0
 30
0.0
  0
VERTEX
  5
8E2
  8
0
 10
13.972472
 20
1.0
 30
0.0
  0
VERTEX
  5
8E3
  8
0
 10
13.972472
 20
3.0
 30
0.0
  0
SEQEND
  5
8E4
  8
0
  0
POLYLINE
  5
1A7
  8
0
 66
     1
 10
0.0
 20
0.0
 30
0.0
 70
     1
  0
VERTEX
  5
8E5
  8
0
 10
12.347472
 20
1.75
 30
0.0
  0
VERTEX
  5
8E6
  8
0
 10
12.347472
 20
2.25
 30
0.0
  0
VERTEX
  5
8E7
  8
0
 10
13.097472
 20
2.25
 30
0.0
  0
VERTEX
  5
8E8
  8
0
 10
13.097472
 20
1.75
 30
0.0
  0
SEQEND
  5
8E9
  8
0
  0
POLYLINE
  5
1A8
  8
0
 66
     1
 10
0.0
 20
0.0
 30
0.0
 70
     1
  0
VERTEX
  5
8EA
  8
0
 10
12.347472
 20
2.4825
 30
0.0
  0
VERTEX
  5
8EB
  8
0
 10
12.347472
 20
1.5175
 30
0.0
  0
VERTEX
  5
8EC
  8
0
 10
12.767472
 20
1.5175
 30
0.0
  0
VERTEX
  5
8ED
  8
0
 10
12.767472
 20
1.61
 30
0.0
  0
VERTEX
  5
8EE
  8
0
 10
12.932472
 20
1.61
 30
0.0
  0
VERTEX
  5
8EF
  8
0
 10
12.932472
 20
1.32
 30
0.0
  0
VERTEX
  5
8F0
  8
0
 10
13.097472
 20
1.32
 30
0.0
  0
VERTEX
  5
8F1
  8
0
 10
13.097472
 20
2.68
 30
0.0
  0
VERTEX
  5
8F2
  8
0
 10
12.932472
 20
2.68
 30
0.0
  0
VERTEX
  5
8F3
  8
0
 10
12.932472
 20
2.39
 30
0.0
  0
VERTEX
  5
8F4
  8
0
 10
12.767472
 20
2.39
 30
0.0
  0
VERTEX
  5
8F5
  8
0
 10
12.767472
 20
2.4825
 30
0.0
  0
SEQEND
  5
8F6
  8
0
  0
POLYLINE
  5
1A9
  8
0
 66
     1
 10
0.0
 20
0.0
 30
0.0
 70
     1
  0
VERTEX
  5
8F7
  8
0
 10
13.472472
 20
2.375
 30
0.0
  0
VERTEX
  5
8F8
  8
0
 10
13.472472
 20
1.625
 30
0.0
  0
VERTEX
  5
8F9
  8
0
 10
13.097472
 20
1.625
 30
0.0
  0
VERTEX
  5
8FA
  8
0
 10
13.097472
 20
2.375
 30
0.0
  0
SEQEND
  5
8FB
  8
0
  0
TEXT
  5
1AA
  8
0
 10
14.231621
 20
0.787586
 30
0.0
 40
0.15
  1
1/4"
 50
270.0
  0
CIRCLE
  5
1AB
  8
0
 10
13.972472
 20
0.5625
 30
0.0
 40
0.125
  0
LINE
  5
1AC
  8
0
 10
13.972472
 20
0.358898
 30
0.0
 11
13.972472
 21
0.766102
 31
0.0
  0
LINE
  5
1AD
  8
0
 10
14.252174
 20
2.625
 30
0.0
 11
14.692769
 21
2.625
 31
0.0
  0
LINE
  5
1AE
  8
0
 10
14.252174
 20
1.375
 30
0.0
 11
14.692769
 21
1.375
 31
0.0
  0
TEXT
  5
1AF
  8
0
 10
13.634057
 20
2.419289
 30
0.0
 40
0.1875
  1
BLOCK
 50
270.0
1001
ACAD
1000
MTEXTBEGIN
1070
    73
1070
     1
1070
    44
1040
1.0
1070
    74
1070
     0
1000
MTEXTEND
  0
TEXT
  5
1B0
  8
0
 10
14.076432
 20
1.908327
 30
0.0
 40
0.15
  1
1/4"
 50
270.0
  0
TEXT
  5
1B1
  8
0
 10
14.588554
 20
2.482881
 30
0.0
 40
0.15
  1
1/4"
 50
270.0
  0
CIRCLE
  5
1B2
  8
0
 10
14.472472
 20
2.625
 30
0.0
 40
0.125
  0
LINE
  5
1B3
  8
0
 10
14.472472
 20
2.404702
 30
0.0
 11
14.472472
 21
2.845298
 31
0.0
  0
CIRCLE
  5
1B4
  8
0
 10
14.472472
 20
1.375
 30
0.0
 40
0.125
  0
LINE
  5
1B5
  8
0
 10
14.472472
 20
1.154702
 30
0.0
 11
14.472472
 21
1.595298
 31
0.0
  0
LINE
  5
1B6
  8
0
 10
14.176074
 20
0.5625
 30
0.0
 11
13.76887
 21
0.5625
 31
0.0
  0
POLYLINE
  5
1B7
  8
0
 66
     1
 10
0.0
 20
0.0
 30
0.0
 70
     1
  0
VERTEX
  5
8FC
  8
0
 10
16.159972
 20
2.25
 30
0.0
  0
VERTEX
  5
8FD
  8
0
 10
17.944944
 20
2.25
 30
0.0
  0
VERTEX
  5
8FE
  8
0
 10
17.944944
 20
1.75
 30
0.0
  0
VERTEX
  5
8FF
  8
0
 10
16.159972
 20
1.75
 30
0.0
  0
SEQEND
  5
900
  8
0
  0
POLYLINE
  5
1B8
  8
0
 66
     1
 10
0.0
 20
0.0
 30
0.0
 70
     1
  0
VERTEX
  5
901
  8
0
 10
16.368016
 20
2.936627
 30
0.0
  0
VERTEX
  5
902
  8
0
 10
16.368016
 20
1.063373
 30
0.0
  0
VERTEX
  5
903
  8
0
 10
16.694944
 20
1.063373
 30
0.0
  0
VERTEX
  5
904
  8
0
 10
16.694944
 20
2.936627
 30
0.0
  0
SEQEND
  5
905
  8
0
  0
TEXT
  5
1B9
  8
0
 10
15.659353
 20
3.455326
 30
0.0
 40
0.15
  1
1/4"
 50
270.0
  0
LINE
  5
1BA
  8
0
 10
15.51887
 20
2.8125
 30
0.0
 11
15.926074
 21
2.8125
 31
0.0
  0
CIRCLE
  5
1BB
  8
0
 10
15.722472
 20
2.8125
 30
0.0
 40
0.125
  0
TEXT
  5
1BC
  8
0
 10
15.099618
 20
2.566029
 30
0.0
 40
0.1875
  1
BEARING
 50
270.0
1001
ACAD
1000
MTEXTBEGIN
1070
    73
1070
     1
1070
    44
1040
1.0
1070
    74
1070
     0
1000
MTEXTEND
  0
LINE
  5
1BD
  8
0
 10
15.722472
 20
3.016102
 30
0.0
 11
15.722472
 21
2.608898
 31
0.0
  0
POLYLINE
  5
1BE
  8
0
 66
     1
 10
0.0
 20
0.0
 30
0.0
 70
     1
  0
VERTEX
  5
906
  8
0
 10
16.159972
 20
2.520348
 30
0.0
  0
VERTEX
  5
907
  8
0
 10
16.159972
 20
1.479652
 30
0.0
  0
VERTEX
  5
908
  8
0
 10
16.368016
 20
1.479652
 30
0.0
  0
VERTEX
  5
909
  8
0
 10
16.368016
 20
2.520348
 30
0.0
  0
SEQEND
  5
90A
  8
0
  0
ENDSEC
  0
EOF
